Cifra Club

Key To The Highway

Keith Richards

Cifrado: Principal (guitarra y guitarra eléctrica)
Selo Cifra Club: esta cifra foi revisada para atender aos critérios oficiais da nossa Equipe de Qualidade.
tono: C
E|-8b| 8b 8b 8b 8b 8b 8b 8b-5----5--------------------------------------------|
B|---------------------------5b---8/10~----------------6-8------10-12-12b----|
G|----------------------------------------4/7(| n)----/7------/11-----------11~|
D|---------------------------------------------------------------------------|
A|---------------------------------------------------------------------------|
E|---------------------------------------------------------------------------|

E|-----5----------------/13(| n)-----------------------------------------------|
B|---5---8-5-----------------------------------------------------------------|
G|7b---------7b-5-7-5----------7b-5-7b-5~------------------------------------|
D|--------------------7-------------------7-5-7--------5---------------------|
A|-----------------------------------------------5-6-7---7-6-5-3-------------|
E|---------------------------------------------------------------5-----------|



************************************

| b  Bend
| /  Slide up
| ~  Vibrato  
Otros videos de esta canción
    19 exhibiciones
      • ½ Tono
      • A
      • Bb
      • B
      • C
      • Db
      • D
      • Eb
      • E
      • F
      • F#
      • G
      • Ab
    • Agregar a la lista

    Afinación de cifrado

    Afinador online

      OK