Cifra Club

Robbed Blind

Keith Richards

Cifrado: Principal (guitarra y guitarra eléctrica)
Selo Cifra Club: esta cifra foi revisada para atender aos critérios oficiais da nossa Equipe de Qualidade.
tono: Am
INTRO:
OK, roll em

   E           G
E|---------0----------3---------|
B|------------------------------|
G|-------1----------0-----------|
D|-----2----------0-------------|
A|---2----------2----------2-3--|
E|-0----------3----------3------|


VERSE:
 C      F            G
Someone  stole some money
       F                    G
Who it is, it ain't quite clear
C      
 Stolen 
F         G
 From my honey
     F                    G
She holds my stash round here


VERSE:
     C
The cops you know , 
F            G
 I can't involve them, 
 F                G
They'd only interfere
      C      F      G
So I hit the usual suspects 
       F                   G  
But I drew a blank round there


CHORUS:
             F    G
I'm robbed blind,
         F   G C F Am C
Robbed blind


VERSE:
C          F     G
  Found a letter to her
        F
It was from a
             G
A friend of mine
C         F        G
It was a plan to screw me
 F                       G
That's what they had in mind


VERSE:
C          F         G
The cops I  can't involve them, 
       F                G
Don't want them coming near
              C
'Cause this thing 
F           G
Is getting personal 
         F                     G
And the picture is now quite clear


CHORUS:
             F    G
I'm robbed blind, 
         F   G
Robbed blind, 
      F  G
Bled dry

   E           G
E|---------0----------3----|
B|-------------------------|
G|-------1----------0------|
D|-----2----------0--------|
A|---2----------2----------|
E|-0----------3------------|


INSTRUMENTAL/G  O:

   G        C          F       G                   F                G

E|-------------12-12-12h13--12-12------------------------------------------|
B|-12-13-15-15--------------------15-14-15--13-12-13--12-12\10-10--10\8--8-|
G|-------------------------------------------------------------------------|
D|-------------------------------------------------------------------------|
A|-------------------------------------------------------------------------|
E|-------------------------------------------------------------------------|

                                      sl.              sl.
   G          C     F     G         C / E            E / G

E|----------------------------------3-/-7------------7-/-10-----------|
B|------------------5-5-5-5-3---3---5-/-9-------9----9-/-12-------12--|
G|----------------------------5-----5-/-9-----9---9--9-/-12-----12----|
D|----------0-----------------------5-/-9---9--------9-/-12---12------|
A|----0-2-3---3---------------------3-/-7-7----------7-/-10-10--------|
E|--3-------------------------------3-/-7------------7-/-10-----------|


VERSE:
 C        F           G
The stash  no longer matters 
    F
And he 
               G
Ain't hard to find
          C         F      G
Cause it ain't the money, honey, 
          F                  G
But the heart you stole was mine
         C   F           G
But the cops  I can't involve them, 
 F                         G
God knows what they could find
C                     F      G
 Well I've learned a lesson from that girl 
       F                   G
Whose fate is yet to be defined


CHORUS:
              F
Been robbed blind, 
         G
Robbed blind
F                 G
 Robbed, robbed blind
                 F
Thank you sweetheart
G
 Bled dry


OUTRO:
 E                    G
That was a damn good try
F          G
  Robbed blind, 
F               G
  Been robbed blind
         F          
Robbed blind,
      G   
Bled dry

   E           G
E|---------0----------3------|
B|----------------------3----|
G|-------1----------0--------|
D|-----2----------0----------|
A|---2----------2------------|
E|-0----------3--------------|
Otros videos de esta canción
    18 exhibiciones
      • ½ Tono
      • Am
      • Bbm
      • Bm
      • Cm
      • C#m
      • Dm
      • Ebm
      • Em
      • Fm
      • F#m
      • Gm
      • G#m
    • Agregar a la lista

    Afinación de cifrado

    Afinador online

      OK