Cifra Club

Breakaway

Kelly Clarkson

Tablatura: Principal (guitarra)
Tom: G
[Intro]

        Am
E|--0------------------------------------|
B|----1----------------------------------|
G|------0h2------------------------------|
D|---------------------------------------| 
A|---------------------------------------|
E|---------------------------------------|

E|---------------------------------------|
B|---------------------------------------|
G|--5-5-5-7-5--9-9-9-9--7--5-5-7-7-5-4-5-|
D|-5-5-5-5-5--9-9-9-9--7--5-5------------|
A|---------------------------------------|
E|---------------------------------------|

Am         G/B      C          Fadd9
Da da da n da da, Da da da n da da, aaa
Am         G        F                (2x)
Da da da n da da da da, aaa

Am           G/B
Grew up in a small town
C                       Fadd9
And when the rain would fall down
Am       G            Fadd9
I'd just stare out my window
Am               G/B
Dreaming of what could be
C                 Fadd9
And if I'd end up happy
Am G     Fadd9
I would pray

Am             G/B
Trying hard to reach out
C                   F9
But when I tried to speak out
Am        G            F9
Felt like no one could hear me
Am           G/B
Wanted to belong here
C                     F9
But something felt so wrong here
Am G   F
So I'd pray
Am      G       D/F# F9   G
I could break away

C                             G
I'll spread my wings and I'll learn how to fly.
     Am                    F9
I'll do what it takes till I touch the sky.
C
Make a wish, take a chance,
G                  Am    G F9
Make a change, and break away.
C                       G
Out of the darkness and into the sun.
    Am                     F9
But I won't forget all the ones that I love.
     C
I'll take a risk, take a chance,
G                  Am    G F9
Make a change, and break away

        Am
E|--0------------------------------------|
B|----1----------------------------------|
G|------0h2------------------------------|
D|---------------------------------------| 
A|---------------------------------------|
E|---------------------------------------|

E|---------------------------------------|
B|---------------------------------------|
G|--5-5-5-7-5--9-9-9-9--7--5-5-7-7-5-4-5-|
D|-5-5-5-5-5--9-9-9-9--7--5-5------------|
A|---------------------------------------|
E|---------------------------------------|

Am             G/B
Wanna feel the warm breeze
C             F9
Sleep under a palm tree
Am       G           F9
Feel the rush of the ocean
Am            G/B
Get onboard a fast train
C           F9
Travel on a jetplane
Am  G F9
Far away
    Am    G D/F# F9  G
And break away

C                             G
I'll spread my wings and I'll learn how to fly.
     Am                    F9
I'll do what it takes till I touch the sky.
C
Make a wish, take a chance,
G                  Am    G F9
Make a change, and break away.
C                       G
Out of the darkness and into the sun.
Am                         F9
But I won't forget all the ones that I love.
     C
I'll take a risk, take a chance,
G                  Am    G F9
Make a change, and break away

G
Buildings with a hundred floors
Am
Swinging with revolving doors
G                                Am
Maybe I don't know where they'll take me
G                    Am
Gotta keep movin on movin on
     D
Fly away
       F9    G
Break away

C                             G
I'll spread my wings and I'll learn how to fly.
Am                      F9
Though it's not easy to tell you goodbye
C
Make a wish, take a chance,
G                  Am    G F9
Make a change, and break away.
C                       G
Out of the darkness and into the sun.
Am                     F9
But I won't forget the place I come from
        C
I gotta take a risk, take a chance,
G                  Am    G F9
Make a change, and break away
Am    G F9
Break away
Am    G F9
Break away

( F )
reproducciones 1.057

0 comentarios

mostrar más comentarios

¿Conseguiste tocar?

49 tocaron 1 aún no

¡Graba un vídeo tocando Breakaway y envianoslo!

00:00 / 00:00
outros vídeos desta música
repetir qualidade Automático
Outros vídeos desta música
00:00 / 00:00
Automático
OK