Cifra Club

Sober

Kelly Clarkson

Tablatura: Principal (guitarra)
Tom: D
  D9      D
-------|--2----
----3- |----3--
--2----|--2----
-------|-------
-------|-------
-------|-------

(intro) D A D

             D
And I don't know
            A                   D
This could break my heart or save me
           D
Nothing's real
       A              D
Until you let go completely
          D                 A                  D
So here I go with all my thoughts I've been saving
          D               A                D
So here I go with all my fears weighing on me

(chorus)
Bm               A           G
Three months and I'm still sober
D              A                 Bm       G
Picked all my weeds but kept the flowers

(verse 2)
D A D
And I don't know
I could crash and burn but maybe
At the end of this road I might catch a glimpse of me

(chorus 2)
Bm                A            G
Three months and I'm still breathing
Bm      A                      G                           D
Been a long road since those hands I left my tears in but I know
     A             Bm      G
It's never really over, no

      D   A   Bm   G
Wake up

Bm                A
Three months and I'm still standing here
G
Three months and I'm getting better yeah
Bm               A             G
Three months and I still am

Bm               A
Three months and I'm still breathing
G
Three months and I still remember it
D                A          Bm
Three months and I wake up

-------------------------------------------------------------------|E
-------------------------------------------------------------------|B
-----2----2-----2---------2--0-------------------------------------|G
----------------------0---------4--2---0--2--4---------------------|D
-------------------------------------------------------------------|A
-------------------------------------------------------------------|E

  Bm               A           G
Three months and I'm still sober
D              A                 Bm       G
Picked all my weeds but kept the flowers
reproducciones 168
Acordes para:
    Composição: Aben Eubanks / Jimmy Messer / Kelly Clarkson Colaboración y revision:
    • Lucas Freitas
    • Lucas Freitas
    • Luís Santos

    0 comentarios

    mostrar más comentarios

    ¿Conseguiste tocar?

    1 tocaron 0 aún no

    ¡Graba un vídeo tocando Sober y envianoslo!

    00:00 / 00:00
    outros vídeos desta música
    repetir qualidade Automático
    Outros vídeos desta música
    00:00 / 00:00
    Automático
    OK