Cifra Club

Complexion A Zulu Love

Kendrick Lamar

Chords: Principal (acoustic and electric guitars)
tone: Gm
E|----------------|----------------|----------------|----------------|
B|----------------|----------------|----------------|----------------|
G|----------------|----------------|----------------|----------------|
D|----------------|----------------|----------------|----------------|
A|----------------|----------------|----------------|----------------|
E|----------------|----------------|----------------|----------------|

 -plexion                                   (Two-   step)
  1                2                3                4 
E|----------------|----------------|----------------|----------------|
B|----------------|----------------|------------7---|----------------|
G|----------------|------------7---|----------------|----------------|
D|----------------|--------7-------|--------7-------|----------------|
A|----7---9--10---|---10-----------|---10-----------|----------------|
E|0---------------| 7---------------|8---------------|----------------|

                               com- plexion     don't    mean    a
  5                6                7                8
E|----------------|----------------|----------------|----------------|
B|----------------|----------------|------------7---|----------------|
G|------------7---|----------------|----------------|----------------|
D|--------7-------|----------------|--------7-------|--------0-------|
A|---10-----------|----------------|---10-----------|------------6---|
E|8---------------|----------------| 8---------------|----------------|

  thing                                    (It's a   Zulu        Love)
  9               10               11               12
E|----------------|----------------|----------------|----------------|
B|----------------|----------------|------------5---|----------------|
G|----------------|------------7---|------------5---|----------------|
D|----------------|--------7-------|--------5-------|----------------|
A|7---7---9--10---|---10-----------|----8-----------|----------------|
E|0---------------| 7---------------|6---------------|----------------|

                                                     Oooooooooooh...
  13              14               15               16                
E|----------------|----------------|----------------|----------------|
B|------------5---|----------------|----------------|----------------|
G|------------5---|----------------|----------------|----------------|
D|--------5-------|----------------|----------------|----------------|
A|----8-----------|----------------|----------------|----------------|
E|6---------------|----------------| 6---------------|----------------|
  
  17              18               19               20
E|----------------|----------------|----------------|----------------|
B|----------------|----------------|------------7---|----------------|
G|----------------|------------7---|----------------|----------------|
D|----------------|--------7-------|--------7-------|----------------|
A|----------------|---10-----------|---10-----------|----------------|
E|----------------| 7---------------|8---------------|----------------|

                                            It  all    feels     the
  21              22               23               24 
E|----------------|----------------|----------------|----------------|
B|----------------|----------------|------------7---|----------------|
G|------------7---|----------------|----------------|----------------|
D|--------7-------|----------------|--------7-------|--------0-------|
A|---10-----------|----------------|---10-----------|------------6---|
E|8---------------|----------------| 8---------------|----------------|

  same                                     (It's a   Zulu        Love)
  25              26               27               28
E|----------------|----------------|----------------|----------------|
B|----------------|----------------|------------5---|----------------|
G|----------------|------------7---|------------5---|----------------|
D|----------------|--------7-------|--------5-------|----------------|
A|7---7---9--10---|---10-----------|----8-----------|----------------|
E|0---------------| 7---------------|6---------------|----------------|
   
                                                   
  29              30               31               32                
E|----------------|----------------|----------------|----------------|
B|------------5---|----------------|----------------|----------------|
G|------------5---|----------------|------------5---|----------------|
D|--------5-------|----------------|--------5-------|----------------|
A|----8-----------|----------------|----8-----------|----------------|
E|6---------------|----------------| 6---------------|----------------|
00:00 / 00:00
Other videos of this song
Repeat
Other videos of this song
3 views
    • ½ Tone
    • Am
    • Bbm
    • Bm
    • Cm
    • C#m
    • Dm
    • Ebm
    • Em
    • Fm
    • F#m
    • Gm
    • G#m
  • Add to list

Afinação da cifra

Afinador online

    00:00 / 00:00
    OK