Cifra Club

Hood Politics

Kendrick Lamar

Cifrado: Principal (guitarra y guitarra eléctrica)
Selo Cifra Club: esta cifra foi revisada para atender aos critérios oficiais da nossa Equipe de Qualidade.
tono: F#
E|E|-------------------------------------------------------------------------------||
                             HOOD POLITICS (Intro) - Kendrick Lamar
E|E|-------------------------------------------------------------------------------||
Tabbed by:RioTz94

There is no tab or explanation for the intro of this song, which is absolutely
amazing, so I created one !

I can not garantee that all the notes are perfect because I only figured it out
by ear, and this is an adaptation because in the song the intro is played by
various instruments.

It is quite easy to play but the rythm can be a bit difficult to get at first,
so just listen to the song and you will figure it out in no time ;)

Tuning:Standard (EADGBe)


E|----------------------------------------------------------------------------|
B|----------------------------------------------------------------------------|
G|-----------------8---8---8---8---8---8--------------------10---10---10---10-|
D|-----------------9---9---9---9---9---9--------------------11---11---11---11-|
A|-9-11-9-9--6---6-9---9-9-9---9-9-9---9---9-11--9-8--6-----11---11---11---11-|
E|-------------9-----7-------7-------7---7--------------9-6-9--6-9--9-9--6-9--|

E|-------------|
B|-------------|
G|---10---10---|
D|---11---11---|
A|---11---11---|
E|-9-9--6-9----|

The second time you play the intro, the begining changes and is played like this:

E|--------------------------|
B|--------------------------|
G|--------------------------|
D|--------------------------|
A|-9-11-9-9--9/13-9-6---6---|
E|--------------------9-----|
00:00 / 00:00
Otros videos de esta canción
Repetir
Otros videos de esta canción
54 exhibiciones
    • ½ Tono
    • A
    • Bb
    • B
    • C
    • Db
    • D
    • Eb
    • E
    • F
    • F#
    • G
    • Ab
  • Agregar a la lista

Afinación de cifrado

Afinador online

    00:00 / 00:00
    OK