Cifra Club

Untitled 07 2014 - 2016

Kendrick Lamar

Chords: Principal (acoustic and electric guitars)
tone: Bbm
E|-------------16--------|
B|----14-----------------|
G|-------13-14-----------|
D|-----------------------|
A|-----------------------|
E|-----------------------|

Transition to Section 2
2:32
E|------------12----------------|-------------------------------|
B|----14--12-----14-12-----14p12|----14-12----------------------|
G|---------------------14-------|-14--------14-13-14p13-11------| x2
D|------------------------------|-------------------------------|
A|------------------------------|-------------------------------|
E|------------------------------|-------------------------------|

Section 2
2:51
      F#m                   F
E|----2---2-2-2-2-2-2-2-2--|-1-1-1-1-1-1-1-1--------------------|
B|----2--------------------|-1----------------------------------|
G|----2--------------------|-2----------------------------------|
D|----4--------------------|-3----------------------------------|
A|----4--------------------|-3----------------------------------|
E|----2--------------------|-1----------------------------------|



Section 3
4:30
E|-----------------|--------------------------------------------|
B|-----------------|--------------------------------------------|
G|-----------------|---------2----2-----------------------------|
D|-----------------|---------2----1-----------------------------|
A|---0---0---0---0-|-0---0-2----2-------------------------------|
E|-----------------|--------------------------------------------|
00:00 / 00:00
Other videos of this song
Repeat
Other videos of this song
    • ½ Tone
    • Am
    • Bbm
    • Bm
    • Cm
    • C#m
    • Dm
    • Ebm
    • Em
    • Fm
    • F#m
    • Gm
    • G#m
  • Add to list

Afinação da cifra

Afinador online

    00:00 / 00:00
    OK