Cifra Club

Going Home

Kenny G

Cifrado: Principal (guitarra y guitarra eléctrica)
tono: G
Obs.: Após esta parte da tablatura ele improvisa, depois volta ao
tema. Improvisa no tom de G maior.


   0:11                 0:25
e-12------------------------------------------12~~-------------------------------------12~~------
B----15-13-12-----------12-15~~----12-15~~-15-----12-------------12-15~~----12-15~~-15---12------
G-------------14-12--14---------14-------------------12-14~~--14---------14----------------12-14-
D------------------------------------------------------------------------------------------------
A------------------------------------------------------------------------------------------------
E------------------------------------------------------------------------------------------------
  0:48
e--12-14-15-14-15----12-14-15-14-15----12-14-15-14-15--17b(19)r-17-15-12h14----12-14-15-14-15----
B-----------------12----------------12--------------------------------------12-------------------
G------------------------------------------------------------------------------------------------
D------------------------------------------------------------------------------------------------
A------------------------------------------------------------------------------------------------
E------------------------------------------------------------------------------------------------

e--12-14-15-14-12-----------------12----12----------------------12-14-15-14-15--12-14-15-14-12-----------
B-----------------15-12--------12----15---------------12-----12-------------------------------15-12------
G-----------------------14-12--------------14b(16)-12----14-----------------------------------------14-12
D--------------------------------------------------------------------------------------------------------
A--------------------------------------------------------------------------------------------------------
E--------------------------------------------------------------------------------------------------------
                                                 1:37
e----12------------------------------------------------------------------------------------------
B-12----15-13-12----------15-13-12----12------------12-15~~----12-15~~---------------------------
G----------------14-12-14----------14---14-12----14---------14-----------------------------------
D------------------------------------------------------------------------------------------------
A------------------------------------------------------------------------------------------------
E------------------------------------------------------------------------------------------------
  1:37
e---------------------------12------------------------------------12------------12-14-15-14-15
B-----12-15~~----12-15~~-15----12-----------12-15~~----12-15~~-15----12------------------------
G--14---------14------------------12-14--14---------14------------------12-14~~------------------
D------------------------------------------------------------------------------------------------
A------------------------------------------------------------------------------------------------
E------------------------------------------------------------------------------------------------

e----12-14-15-14-15----12-14-15-14-15--17b(19)r-17-15-12h14-----12-14-15-14-15--12-14-15-14-12------------
B-12----------------12---------------------------------------12-------------------------------15-12-------
G----------------------------------------------------------------------------------------------------14-12
D---------------------------------------------------------------------------------------------------------
A---------------------------------------------------------------------------------------------------------
E---------------------------------------------------------------------------------------------------------

e----12---12----------------------12-14-15-14-15--12-14-15-14-12----------------12------------------
B-12---15---------------12-----12--------------------------------15-12-------12----15-13-12---------
G------------14b(16)-12----14------------------------------------------14-12----------------14-12-14
D---------------------------------------------------------------------------------------------------
A---------------------------------------------------------------------------------------------------
E---------------------------------------------------------------------------------------------------

e------------------------------------------------------------------------------------------------
B-15-13-12---------------------------------------------------------------------------------------------
G-----------14-12------------12------------------------------------------------------------------------
D-----------------14-12--/12------------------------------------------------------------------------------
A------------------------------------------------------------------------------------------------
E------------------------------------------------------------------------------------------------
00:00 / 00:00
Otros videos de esta canción
Repetir
Otros videos de esta canción
Composición de Kenny Gorelick / Walter Afanasieff
Colaboración y revisión:
  • Luis Gustavo
258 vistas
    • ½ Tono
    • A
    • Bb
    • B
    • C
    • Db
    • D
    • Eb
    • E
    • F
    • F#
    • G
    • Ab
  • Agregar a la lista

    0 comentarios

    Ver todos los comentarios

    ¿Lograste tocar?

    0 Tocaron 0 Aún no

    ¡Graba un video tocando Going Home y envíanoslo!

    00:00 / 00:00
    OK