Cifra Club

Starless

Rurouni Kenshin

Cifrado: Principal (guitarra y guitarra eléctrica)
tono: G
(violão solo)

E|----------------------------------------------
B|-5~------5-5h6-5--------10--10/8-8--8-10------
G|---7-5-7---------5~----------------------7h9--
D|---------------------5h7----------------------
A|----------------------------------------------
E|----------------------------------------------

E|-----------------------------------------
B|-5~-------5-5h6-5------------------------
G|----7-5-7----------5~--2-4-5--5h7-4--0-2-
D|-----------------------------------------
A|-----------------------------------------
E|-----------------------------------------

E|--------------------------3--------3--5--5-5p3-3-3h5----------
B|-----------------3-5-6-----3-5-6---------------------3h5------
G|------0-2-4-5--------------------------------------------3h5s2
D|-0h2----------------------------------------------------------
A|--------------------------------------------------------------
E|--------------------------------------------------------------

E|-3h5-5-7------------------------
B|--------8-8-8h10-6-5~-------3h5-
G|----------------------5-4-3-----
D|--------------------------------
A|--------------------------------
E|--------------------------------

E|-3h5-5-10/7----------------
B|------------8-6-5h6p5--3--1
G|---------------------------
D|---------------------------
A|---------------------------
E|---------------------------

E|--------------------------------------
B|--------------------------------------
G|-2-4-5~-5h7-4-0-2---2-4-5~-5h7-4-0-2--
D|--------------------------------------
A|--------------------------------------
E|--------------------------------------
00:00 / 00:00
Otros videos de esta canción
Repetir
Otros videos de esta canción
Compositor no encontrado.
Colaboración y revisión:
  • Giorgio Pandolfi
392 exhibiciones
    • ½ Tono
    • A
    • Bb
    • B
    • C
    • Db
    • D
    • Eb
    • E
    • F
    • F#
    • G
    • Ab
  • Agregar a la lista
    00:00 / 00:00
    OK