Cifra Club

Aprenda

Goodbye

Kesha

Tablatura: Principal (guitarra)
tono: G
Intro:
   D                A/C#            Cadd9
E|----------------|--------------|-----(3)----|
B|-------3--------|-----2--------|------3-----|
G|-----2---2---2--|---2-2-2---2--|----0---0---|
D|--0--------0----|--------------|------------|
A|----------------|-4-------4----|--3-------3-|
E|----------------|--------------|------------|
   G
E|-----------------------|
B|---------3----------3--|
G|-------0----------0----|       (2x)
D|--0-2h-------0-2h------|
A|-----------------------|
E|-----------------------|

The hope is fading from my lips
When I kiss you with goodbye
Now when you let go of our last embrace
Please don't look me in the eye

G        Aadd9/C#        G/D               A
Secret's out, that I just might care about you
G        Aadd9/C#        G/D               A
You broke me, you're leaving There's nothing I can do

I'll find a way to close the door
I want to say so much more but
I found you once, you're lost again
Two thousand miles took what could have been

D        D9
I don't want to
 D       D9
Won't let myself
I have to realize

D        D9
This might be
D        D9
This could be

This is goodbye
This is goodbye

The smile fate was wearing, slowly die
Minutes turn to months
Silence of the phone just mocks my cry
When I see that you've moved on

G        Aadd9/C#        G/D               A
Secret's out, that I just might care about you
G        Aadd9/C#        G/D               A
You broke me, you're leaving There's nothing I can do

I'll find a way to close the door
I want to say so much more but
I found you once, you're lost again
Two thousand miles took what could have been

D        D9
I don't want to
D        D9
Won't let myself
I have to realize

D       D9
This might be
D       D9
This could be
This is goodbye
Dedilhado da ponte:
E|--------------------------------------------------|
B|--0----2---2/3---3-3--3----7----7--7--7--8/7------|
G|--0----2---2-----4-4--4----7---7--7--7--7---------| (2x)
D|--0-0----0------0----0-----0-0--0--0--0-----------|
A|--------------------------------------------------|
E|--------------------------------------------------|

Do I ever cross your mind?
Cause you're on mine all the time
E|-----------------------------------------|
B|--0----2---2/3---3-3--3----7--8---10-----|
G|--0----2---2-----4-4--4----7--7---11-----|
D|--0-0----0------0----0-----0--0---0------|
A|-----------------------------------------|
E|-----------------------------------------|

I can believe how unfair life is

Em         Em7
sometimes ohhhhh

I'll find a way to close the door
I want to say so much more but
I found you once, you're lost again
Two thousand miles took what could have been

D           D9
I don't want to
D           D9
Won't let myself
I have to realize

D         D9
This might be
D         D9
This could be

This is goodbye
This is goodbye

The hope is fading from my lips
Composição de Dorian Cheah / Ke$ha / Pebe Sebert
Colaboración y revision:
  • Fernandim Biano
  • LuizGabriel
134 reproducciones
    • ½ Tono
    • A
    • Bb
    • B
    • C
    • Db
    • D
    • Eb
    • E
    • F
    • F#
    • G
    • Ab
  • Adicionar à lista

    0 comentarios

    Ver todos os comentários

    ¿Conseguiste tocar?

    1 Tocaram 0 Ainda não

    Grave um vídeo tocando Goodbye e nos envie!

    00:00 / 00:00
    outros vídeos desta música
    repetir qualidade Automático
    Outros vídeos desta música
    00:00 / 00:00
    Automático
    OK