Cifra Club

Tik Tok

Kesha

Tab de bajo: Principal
Verso 2x:
G|----------------------------------------------|
D|12-12-12—-12-14-14-15—15-15-------------------|
A|----------------------------------------------|
E|----------------------------------------------|

G|---14-----------------------------------------|
D|12----12—-12-14-14-15—15.15.14----------------|
A|----------------------------------------------|
E|----------------------------------------------|

G|----------------------------------------------|
D|----------------------------------------------|
A|5-5-55-5-77-88-7-5-5-55-5-88-77-7-------------|
E|----------------------------------------------|

Refrão:
G|----------------------------------------------|
D|33333333555777553333333377755535--------------|
A|----------------------------------------------|
E|----------------------------------------------|

G|----------------------------------------------|
D|3333333355577755-3-3-3---37-7-5h7-5-----------|
A|----------------------------------------------|
E|----------------------------------------------|

Verso:
G|----------------------------------------------|
D|1212121212121212-15.14.12.15.14.12.15.14------|
A|----------------------------------------------|
E|----------------------------------------------|

G|-------------------------14.12----------------|
D|1212121212121212-15.14.12-----15.14.14--------|
A|----------------------------------------------|
E|----------------------------------------------|

Ponte:
G|----------------------------------------------|
D|88888888.55555555.77777777777777.55-----------|
A|----------------------------------------------|
E|----------------------------------------------|

G|----------------------------------------------|
D|88888888.55555555.77777777.1010101010101010---|
A|----------------------------------------------|
E|----------------------------------------------|
    Now the party don’t start till I walk in…
G|----------------------------------------------|
D|--------12-12-12------------------------------|
A|----------------------------------------------|
E|----------------------------------------------|
Composição de Benjamin Levin / Kesha Sebert / Lukasz Dr. Luke Gottwald
Colaboración y revision:
  • GbyCastro
54 reproducciones

0 comentarios

Ver todos os comentários

¿Conseguiste tocar?

0 Tocaram 0 Ainda não

Grave um vídeo tocando Tik Tok e nos envie!

00:00 / 00:00
outros vídeos desta música
repetir qualidade Automático
Outros vídeos desta música
00:00 / 00:00
Automático
OK