Cifra Club

Love Lies (feat. Normai Kordei)

Khalid

Tablatura: Principal (guitarra)
Tom: F#
[Intro]

     [D#m ]    [F#]   [B7sus2]
E|---------------------------------------------------------------------------|
B|----------------------2----------------------------------------------------|
G|------3-------3------------------------------------------------------------|
D|----4--4-----4-------4-----------------------------------------------------|
A|--6---------4-------2------------------------------------------------------|
E|---------------------------------------------------------------------------|

[Second Guitar]
E|---------------------------------------------------------------------------|
B|---7-6-4-6-4---2-----------------------------------------------------------|
G|-------------6---3---------------------------------------------------------|
D|---------------------------------------------------------------------------|
A|---------------------------------------------------------------------------|
E|---------------------------------------------------------------------------|

D#m           F#       B7sus2     D#m  F# B7sus2
Sorry if it's hard to catch my vibe, mmm
         D#m             F#             B7sus2  D#m 
I need a lover to trust, tell me you're on my side
        F#   B7sus2
Are you down for the ride?
         D#m      A#m        B     F#   D#m A#m B F#
It's not easy for someone to catch my eye
              D#m         A#m        B      F#
But I've been waitin' for you for my whole damn life
D#m A#m    B   F#
  My whole lifetime

D#m        A#m               B            F#m
  Don't be afraid to tell me if you ain't with it (you ain't with it)
D#m     A#m                         B      F#m
  I see you're focused, yeah you're so independent (independent)
D#m         A#m            B          F#m
  It's hard for me to open up, I'll admit it (I'll admit it)
D#m          A#m                  B           F#m
  You've got some shit to say and I'm here to listen

         D#m           A#m        B F#m
So baby, tell me where your love lies
D#m           A#m             B F#m
Waste the day and spend the night
D#m        A#m      B F#m
Underneath the sunrise
D#m           A#m        B F#m
Show me where your love lies

D#m            F#      B7sus2   D#m  F# B7sus2
I've been so into your mystery
D#m           F#     B7sus2
Is it because of our history?
D#m       F#  B7sus2
  Are you in...to me?
D#m       A#m       B             F#
  When it feels so good, but it's bad for you
D#m     A#m          B               F#
  Can't say I don't want it 'cause I know I do
D#m      A#m              B    F#
Come on over, I need your company
D#m       A#m    B  F#
  Cravin' that synergy

D#m        A#m               B            F#m
  Don't be afraid to tell me if you ain't with it (you ain't with it)
D#m     A#m                         B      F#m
  I see you're focused, yeah you're so independent (independent)
D#m         A#m            B          F#m
  It's hard for me to open up, I'll admit it (I'll admit it)
D#m          A#m                  B           F#m
  You've got some shit to say and I'm here to listen

         D#m           A#m        B F#m
So baby, tell me where your love lies
D#m           A#m             B F#m
Waste the day and spend the night
D#m        A#m      B F#m
Underneath the sunrise
D#m           A#m        B F#m
Show me where your love lies
D#m           A#m        B F#m
Tell me where your love lies
D#m           A#m             B F#m
Waste the day and spend the night
D#m        A#m      B F#m
Underneath the sunrise
D#m           A#m        B F#m
Show me where your love lies

          D#m   F#
If you're down
B7sus2
  Don't hide it
D#m  F#           B7sus2
  Feelin' me, you don't gotta deny it
D#m A#m           B        F#m
    Baby you gon' make me overnight it
D#m A#m               B F#m
     Tell me, are you down?
          D#m  A#m
If you're down
B F#m            D#m A#m
 Don't hide it (yeah)
                B           F#m    D#m
Feelin' me, you don't gotta deny it (yeah)
A#m             B        F#m        D#m
  Baby you gon' make me overnight it
A#m                 B F#m
   Tell me, are you down? (Tell me)

D#m           A#m        B F#m
Tell me where your love lies (tell me where your love lies)
D#m           A#m            B F#m
Waste the day and spend the night (waste the day, spend the night)
D#m        A#m     B F#m
Underneath the sunrise (underneath the sunrise)
D#m           A#m        B F#m
Show me where your love lies (tell me where your love lies)
D#m           A#m        B F#m
Tell me where your love lies (show me where your love lies)
D#m           A#m            B F#m
Waste the day and spend the night (yeah, yeah)
D#m        A#m     B F#m
Underneath the sunrise (ooh)
D#m           A#m        B F#m
Show me where your love lies

     [D#m ]    [F#]   [B7sus2]
E|---------------------------------------------------------------------------|
B|----------------------2----------------------------------------------------|
G|------3-------3------------------------------------------------------------|
D|----4--4-----4-------4-----------------------------------------------------|
A|--6---------4-------2------------------------------------------------------|
E|---------------------------------------------------------------------------|

[Second Guitar]
E|---------------------------------------------------------------------------|
B|---7-6-4-6-4---2-----------------------------------------------------------|
G|-------------6---3---------------------------------------------------------|
D|---------------------------------------------------------------------------|
A|---------------------------------------------------------------------------|
E|---------------------------------------------------------------------------|
reproducciones 127
Acordes para:
    Composição: Khalid Colaboración y revision:
    • Elizandro chamale

    0 comentarios

    mostrar más comentarios

    ¿Conseguiste tocar?

    0 tocaron 3 aún no

    ¡Graba un vídeo tocando Love Lies (feat. Normai Kordei) y envianoslo!

    00:00 / 00:00
    outros vídeos desta música
    repetir qualidade Automático
    Outros vídeos desta música
    00:00 / 00:00
    Automático
    OK