Cifra Club

A Indecência

Kid Abelha

Tablatura: Principal (guitarra)
Tom: F
George Israel / Paula Toller

Solo:
E|-------------------------------------------------------------13--13----15------------------
B|-13-13-13----------------------------------------13-16-13-15--------16---------------------
G|----------15-12----------------------------------------------------------------------------
D|----------------13h15-13------13-15-15--15-13h15-------------------------------------------
A|---------------------------15-----------------------------------------------5-5-5-5-6-5-5--
E|-------------------------------------------------------------------------------------------

Cada nota desse trecho repete 2 ou 3 vezes:
E|-------------------------------------------|--6---8---------8--
B|-------------------4-5-7---4-5-7-5-4---4---|--------10---------
G|-------------------------------------7---7-|-----------10-8----
D|---4-7-4-------4---------------------------|-------------------
A|-6-------6-5-6-----------------------------|-------------------
E|-------------------------------------------|-------------------


[Intro:]Bb9 A9 F   Cm Bb9 F

Cm
A indecência pode ser saudável
Bb9                F
A indecência pode ser normal
Cm               F                    Am
Um pouco de indecência é sempre necessário
        F               Bb
pra manter uma vida normal
        F               Bb      Cm
pra manter uma vida normal, saudável

A castidade pode ser bonita
A castidade pode ser normal
Na hora certa ela é necessária
pra manter uma vida normal
pra manter uma vida normal, saudável

Bb
Tudo é permitido
C                        Bb
se o sentimento for verdadeiro
C
mas se o cérebro vier primeiro
   Bb
é tudo proibido
reproducciones 69
Acordes para:

    0 comentarios

    mostrar más comentarios

    ¿Conseguiste tocar?

    0 tocaron 0 aún no

    ¡Graba un vídeo tocando A Indecência y envianoslo!

    00:00 / 00:00
    outros vídeos desta música
    repetir qualidade Automático
    Outros vídeos desta música
    00:00 / 00:00
    Automático
    OK