Cifra Club

Aprenda

Como Eu Quero

Kid Abelha

Tab de bajo: Principal
Intro 

G|--------------------------------------------------------------
D|----------3-3-2---2-3-4-5--------------3-3-2------------------
A|--5---5-5------3----------2-3-4-5--5-5-------3-0-0-0---0------
E|--------------------------------------------------------------

Primeira parte

G|--------------------------------------------------------------
D|---------2-0------------------------2-3-2-3-3-2-----2-3-4-5---
A|---3---3-----2-------2-3-2-0--0-2-3-------------3-3-----------
E|---------------3---3------------------------------------------

G|--------------------------------------------------------------
D|--------------------2-3--3-2----------------------------------
A|----2-3-2-0---0-2-3-------------------------------------------
E|--3-----------------------------------------------------------

Refrão(2x)

G|--------------------------------------------------------------
D|---------2---2-2-3--3-2-3-3-----3-2-0-------------------------
A|--0--0-0------------------------------0-----------------------
E|--------------------------------------------------------------

Longe do meu domínio....

G|--------------------------------------------------------------
D|----------3-3-2-----2-0--------------------3--3-2-------------
A|--5---5-5------3--------2----2-3-4-5---5-5--------3—0-0-0---0-
E|--------------------------3-----------------------------------


G|--------------------------------------------------------------
D|----------3-3-2---2-3-4-5--------------3--3-2-----------------
A|--5---5-5------3----------2-3-4-5--5-5-------3-0-0-0---0------
E|--------------------------------------------------------------

Solo= Refrão = Ultima parte

G|--------------------------------------------------------------
D|---------2---2-2-3--3-2-3-3-----3-2-0-------------------------
A|--0--0-0------------------------------0-----------------------
E|--------------------------------------------------------------
Compositor Leoni / Paula Toller
Colaboración y revision:
  • thiago santos
  • Igor Marcell
70 reproducciones

0 comentarios

Mostrar mais comentários
00:00 / 00:00
outros vídeos desta música
repetir qualidade Automático
Outros vídeos desta música
00:00 / 00:00
Automático
OK