Cifra Club

Depois Das Seis

Kid Abelha

Tablatura: Principal (guitarra)
Tom: C
Solo:
E|------------------------------------------8----5-7-5-------------------8-10-12-10-8-10--
B|-5--------5-5---------6--5------6--5---------8-------8-6-(5h6p5h6)-6-6------------------
G|----7-5--------7-5---------7-5-------7-5------------------------------------------------
D|--------7----------7--------------------------------------------------------------------
A|----------------------------------------------------------------------------------------
E|----------------------------------------------------------------------------------------

obs: sequencia entre () repetida várias vezes

E|-8-7-8-7/8-7-8-7/8-7-8-7/8-7-8---5-7-8-7-5----------------------------------------------
B|-------------------------------------------8-6-5-6-5-3-5-3------------------------------
G|-----------------------------------------------------------5-5-4-2...-------------------
D|----------------------------------------------------------------------------------------
A|----------------------------------------------------------------------------------------
E|----------------------------------------------------------------------------------------

[Intro:] C G F

C        G        Bb         F      C G Bb F
Desorientada esperei a Lua aparecer
C              G              Bb          F  C G Bb F
Mergulhei nas suas sombras tentando entender
C                      Bb
Você foi embora e eu quis saber "Por que?"
Dm                            G
Ela, teimosa e cinza, quis se esconder

C              Dm
Talvez seja só a primeira vez
Bb             C
Talvez seja só a segunda-feira
                Dm
Talvez um acesso de insensatez
Bb                   C
Talvez porque já passou das seis

De tão esgotada decidi subir voltar à tona
Desisti de perguntar tanta pergunta tola
A solidão do amor é uma solidão tão boa
Quem ama ama o amor, e não outra pessoa
reproducciones 38
Acordes para:
    Composição: George Israel / Paula Toller Colaboración y revision:
    • VLADIMIR KLIMEIKA

    0 comentarios

    mostrar más comentarios

    ¿Conseguiste tocar?

    0 tocaron 0 aún no

    ¡Graba un vídeo tocando Depois Das Seis y envianoslo!

    00:00 / 00:00
    outros vídeos desta música
    repetir qualidade Automático
    Outros vídeos desta música
    00:00 / 00:00
    Automático
    OK