Cifra Club

Deve Ser Amor

Kid Abelha

Tablatura: Principal (guitarra)
Tom: C
George Israel, Paula Toller e Cris Braun

Introdução:
E--------------------------------------------------------------4---------
A------------------------------------------------------------3---2-3-----
D----------------------------------------------------------3-------------
G------------------------------------------------------------------------
B-------13----13----13-------13----13----13-13------13-------------------
E-12-13----10----10----12-13----10----10---------10----------------------

eu não estaria...
E-------------8---------------------4-------
A-5-5-7-8-7-5---------------------3---2-3---
D-------------------------------3-----------
G---------------5-7-7-----5-5-7-------------
B---------------------5-6-------------------
E-------------------------------------------

eu não choraria...                   deve ser amor...
E---------------------------------|------------------------------
A-5-5-3-5-5---3-------------------|------------------------------
D-----------2---------------------|------------------------------
G---------------5-5---5-----------|-5-5---5-------------7-7---7--
B-------------------5-----7-7---7-|-----6-----8-8---8-------8----
E-----------------------------7---|---------------8--------------

1° solo:
E---------------------------------------------------------------------------------------------------------
A---------------------------------------------------------------------------------------------------------
D-----------------------------------------------------------------5---------------------------------------
G-5-7---------------5-----------------5-------------------5---5-3------------------------------9----------
B-----5-6-8---8-6-5---8-6-6-5-5-3-3-5-5---8--8-8-6--6-5-3---3--------8---7---5---3---1---0-------6-8------
E-----------5-----------5-5-3-3-1-1-3---8------------------------------8---7---5---3---1---0---------8----

2° solo:
E---------------------------------------------------------------
A---------------------------------------------------------------
D---------------------------------------------------------------
G-5-5----5-5----7-7----12----12----12---------------------------
B-6-6------5------8----12----12----12----12---------------------
E---5------3------7-------10----10----10-13---------------------

deve ser...
E-----4---------------------------------------------------------
A---3---2-3---------3-----3-----3-3-----------------------------
D-3-------------3-2---3-2---3-2---2-----------------------------
G---------------------------------0-----------------------------
B---------------------------------1-----------------------------
E---------------------------------0-----------------------------

[Intro:] C F Fm

Cifrada por Jorge Luís R. Silva



C              F        Fm
 Não fosse amor não haveria planos
C                    F   Fm
 como uma onda quebraria cedo
 E7
 fosse um momento
             Dm7
 não faria estragos
 G                 C   F Fm C F Fm
 eu não estaria no chão

C              F         Fm
 Não fosse amor não causaria medo
C                        F   Fm
 feito um brinquedo cansaria logo
 E7
 fosse ilusão
                      Dm7
 não traria tanta saudade
 G                  C
 eu não choraria no chão
   B7
 então

REFRÃO:
      F 
 Deve ser amor
      C      G
 Deve ser, então
      F
 Deve ser amor
      C    G
 Deve ser amor

SOLO EM INTRO

 C             F        Fm
 Não fosse amor não duraria tanto
C                      F   Fm
 a chama de um banho-maria brando
 E7
 fosse passado
                  Dm7
 não passaria corrente
   G                   C
 e eu não chamaria de amor
    B7
 eu não

REFRÃO

SOLO: F C G
REFRÃO
FIM: C F Fm G
reproducciones 39
Acordes para:

    0 comentarios

    mostrar más comentarios

    ¿Conseguiste tocar?

    1 tocaron 0 aún no

    ¡Graba un vídeo tocando Deve Ser Amor y envianoslo!

    00:00 / 00:00
    outros vídeos desta música
    repetir qualidade Automático
    Outros vídeos desta música
    00:00 / 00:00
    Automático
    OK