Cifra Club

Educação Sentimental II

Kid Abelha

Tablatura: Principal (guitarra)
Tom: E
[Intro]  C#m7  E  A

       C#m7             E          A
E|---4-X-4-x-4--------7-x-9-x----5-x-5---|
B|---5-X-5-x-5--------9-x-9-x----5-x-5---|
G|---4-X-4-x-4--------9-x-9-x----6-x-6---|
D|---7-X-7-x-7--------9-x-9-x----7-x-7---|
A|-4-4-X-4-x-4--4-6-7-7-x-7-x----7-x-7---|
E|-----------------------------5-5-x-5---|

C#m7
A vida que me ensinaram
 E                A
Como uma vida normal
 C#m7
Tinha trabalho, dinheiro
 E                 A
Família, filhos e tal

E      E7M       E7
Era tudo tão perfeito
    A
Se tudo fosse só isso
 E       E7M             E7
Mas isso é menos do que tudo
         A
É menos do que eu preciso

B           C#m   A
Agora você vai embora
             B
E eu não sei o que fazer
         C#m     A
Ninguém me explicou na escola
         B            A
Ninguém vai me responder

[Solo]

E|-----------------------------------------------|
B|-----------------------------------------------|
G|-----------------------------------------------|
D|--------6-7-------6-7--------6-7--9/11-9--7-6--|
A|--6h7-9-----6h7-9-----6h7-9--------------------|
E|-----------------------------------------------|

C#m7
Eu sei a hora do mundo inteiro
 E                  A
Mas não sei quando parar
C#m7
É tanto medo do sofrimento
  E                 A
Que eu sofro só de pensar

E               E7M
A quem eu devo perguntar
E7             A
Aonde eu vou procurar
E             E7M
Um livro onde aprender
E7             A
A você não me deixar

B           C#m   A
Agora você vai embora
             B
E eu não sei o que fazer
         C#m         A
Ninguém me explicou na escola
         B            A
Ninguém vai me responder

[Solo]  C#m7  E  A

E|---------------------------------------------------------------------------|
B|---------------------------------------------------------------------------|
G|---------------------------------------------------------------------------|
D|--5/6----------------------------------------------------------------------|
A|------4-4---4---44-4-4--7---------4-2~~---44-44-4----44-44-7----------4-2--|
E|-----------7------7-7------4-4-2-4----------7--7-------7--7---4-4h2-4------|

E|---------------------------------------------------------------------------|
B|---------------------------------------------------------------------------|
G|---------------------------------------------------------------------------|
D|---------------------------------------------------------------------------|
A|-7-7h6-6h4-4h7-7h6-6h4-----7-9-7----------7--6--4-4--4-7-6-4---7-9-7-7~--7~|
E|-------------------------7--------4--2-4---------------------7---------9---|

C#m7
Eu sei a hora do mundo inteiro
 E                  A
Mas não sei quando parar
C#m7
É tanto medo do sofrimento
  E                 A
Que eu sofro só de pensar

E               E7M
A quem eu devo perguntar
E7             A
Aonde eu vou procurar
E             E7M
Um livro onde aprender
E7             A
A você não me deixar

B           C#m   A
Agora você vai embora
             B
E eu não sei o que fazer
         C#m         A
Ninguém me explicou na escola
         B            A
Ninguém vai me responder
reproducciones 91
Acordes para:
    Composição: Herbert Vianna / Leoni / Paula Toller Colaboración y revision:
    • Marcos Paulo
    • Diego Theodoro
    • Marcos Souza

    0 comentarios

    mostrar más comentarios

    ¿Conseguiste tocar?

    3 tocaron 1 aún no

    ¡Graba un vídeo tocando Educação Sentimental II y envianoslo!

    00:00 / 00:00
    outros vídeos desta música
    repetir qualidade Automático
    Outros vídeos desta música
    00:00 / 00:00
    Automático
    OK