Cifra Club

Grand' Hotel

Kid Abelha

Tablatura: Principal (guitarra)
Tom: A
[Intro]

E|-------4---------------|-------4--------------|-----4-----4---4------5-----5---5-|-----4-----4---4-5--|
B|-----5---5-------5---5-|-----5---5-------5----|---5-----5----------5-----5-------|---5-----5-------5--|
G|---7-------7---6---6---|---7-------7---6---4--|-7-----7-----7----6-----6-----6---|-7-----7-----7---6--|
D|-0-----------7---------|-0-----------7--------|----------------------------------|--------------------|
A|-----------------------|----------------------|----------------------------------|--------------------|
E|-----------------------|----------------------|----------------------------------|--------------------|

[Solo]

E|------------------------------------------------------------5-7-9-7-5---5-7-9-7-5----|
B|------------------------------------------------------5---5-----------5-----------5--|
G|----------4-6-4-4---4---------------4-6-4-4---4--------------------------------------|
D|---7----7---------7---7-6-7-------7---------7---7-6-7--------------------------------|
A|-7----7---------------------7---7----------------------------------------------------|
E|-------------------------------------------------------------------------------------|

E|-------------------------------------7-5---7-9-10----|
B|-----5-----------------------------7-----7-----------|
G|-7-6---7-6-4-7-6-4-----------4-6-7-------------------|
D|-------------------7---4-6-7-------------------------|
A|-----------------------------------------------------|
E|-----------------------------------------------------|

 E/D                    A
Se a gente näo tivesse feito tanta coisa
 E/D            A
Se näo tivesse dito tanta coisa
 D#m7b5
Se näo tivesse inventado tanto
   G                  A
Podia ter vivido um amor grand' hotel

Se a gente näo fizesse tudo täo depressa
Se näo dizesse tudo täo depressa
Se näo tivesse exagerado a dose
Podia ter vivido um grande amor

    E                     E5+
Um dia um caminhäo atropelou a paixão
 E                      E5+
Sem teus carinhos e tua atençäo
A/C#              A/B                A   D#m7/b5
O nosso amor se transformou em "bom dia"

  D                F#m7
Qual o segredo da felicidade
 D       F#m7       D           F#m7
Será preciso ficar só pra se viver
  D                   F#m7
Qual o sentido da realidade
 D       F#m7       B7
Será preciso ficar só pra se viver

             A
Só pra se viver
       Bm  D
Ficar só
           E/D  A
Só pra se viver
reproducciones 326
Acordes para:
    Composição: George Israel / Lui Farias / Paula Toller Colaboración y revision:
    • Marcos Paulo

    0 comentarios

    mostrar más comentarios

    ¿Conseguiste tocar?

    8 tocaron 0 aún no

    ¡Graba un vídeo tocando Grand' Hotel y envianoslo!

    00:00 / 00:00
    outros vídeos desta música
    repetir qualidade Automático
    Outros vídeos desta música
    00:00 / 00:00
    Automático
    OK