Cifra Club

Mamãe Natureza

Kid Abelha

Tablatura: Principal (guitarra)
Tom: A
intro:
E|-5-3-2-0-----3------5-3-2-0-0-----3---
B|---------1/2---2--------------1/2-----
G|--------------------------------------
D|--------------------------------------
A|--------------------------------------
E|--------------------------------------

Solo:

E|-----------------------------------------------------
B|-----------------------------------------------------
G|-----------------------------------------------------
D|-----------------------------------------------------
A|---------7-----6-----5------7------6------5----------
E|-5-5-5-5---(5)---(5)----(5)---(5)----(5)----(5)...---

()=tocar 7 vezes



A                D             
Não sei se eu estou pirando 
          A                    E                                  
ou se as coisas estão melhorando
     A              D                                               
Não sei seu eu vou ter algum dinheiro 
          A                        E
ou se eu só vou cantar no chuveiro
               D  A
Estou no colo da Mãe Natureza
     D                     A
Ela toma conta da minha cabeça
          D                           A  G#  G  F#
É que eu sei que não adianta mesmo a gente chorar
B                    E
A Mamãe não dá sobremesa

A
Mamãe oh mamãe natureza
Tchuru ru ru tchu ru ru uá á á á
reproducciones 21
Acordes para:
    Composição: Rita Lee

    0 comentarios

    mostrar más comentarios

    ¿Conseguiste tocar?

    0 tocaron 0 aún no

    ¡Graba un vídeo tocando Mamãe Natureza y envianoslo!

    00:00 / 00:00
    outros vídeos desta música
    repetir qualidade Automático
    Outros vídeos desta música
    00:00 / 00:00
    Automático
    OK