Cifra Club

Aprenda

Nada Sei

Kid Abelha

Tablatura: Versão 2 (guitarra)
Tom: E
George Israel/Paula Toller
intro:E B/D# C#m C#m/B F#m B7

[Intro:]                                     nada sei...                       ...pertence
E|-----------------------------------------|-4------4-------------------7---7--|-----0-----0---0-2--
B|-9/10/9-7---9/10/9-7---9-7------------7--|---7-5----7-5-7-5---5---5-7---7----|---4-----4-------2--
G|----------9----------9----9-6---9-8-9----|------------------6---6------------|-4-----4-----4---2--
D|-----------------------------------------|-----------------------------------|--------------------
A|-----------------------------------------|-----------------------------------|--------------------
E|-----------------------------------------|-----------------------------------|--------------------

    ...errada        ...deixar 
E|-4-5-4-5-4--4-5-4-7--|---4---4-------4---------------7---7--
B|---------------------|-5-------5---5---5-----5---5-7---7----
G|---------------------|-----6-----6---------6---6------------
D|---------------------|--------------------------------------
A|---------------------|--------------------------------------
E|---------------------|--------------------------------------

Solo:
E|-5-4---7-5-4---4-----------------5-4---7-5-4---7-5-4-------------
B|-----5-------5---7-5---5-4-5-7-------5-------5-------5---5-4-5-7-
G|---------------------6---------------------------------6---------
D|-----------------------------------------------------------------
A|-----------------------------------------------------------------
E|-----------------------------------------------------------------

Riff:
E|-----------------------------------
B|-10/9-15-10/9----9-7-------------7-
G|--------------9------9-6---9-8-9---
D|-----------------------------------
A|-----------------------------------
E|-----------------------------------

E
E  B/D#  C#m   C#m/B
Nada sei dessa vida
F#m        B
Vivo sem saber
E    B/D#    C#m      C#m/B
Nunca soube, nada saberei
F#m         B7
Sigo sem saber
       F#m         B7
Que lugar me pertence
       F#m     F#m7M B7
Que eu possa abandonar
       F#m         B7
Que lugar me contém
   F#m     F#m7M B7
Que possa me parar
       A          E
Sou errada, sou errante
              F#m
Sempre na estrada
          B7
Sempre distante
       F#m              Am          E B/D# C#m
Vou errando enquanto o tempo me deixar
       F#m              Am          E  Intro. (Na última vez toca-se o Riff...)
Vou errando enquanto o tempo me deixar
E  B/D#  C#m   C#m/B
Nada sei desse mar
F#m        B7
Nado sem saber
E    B/D#    C#m      C#m/B
De seus peixes, suas perdas
F#m        B7
De seu não respirar
 F#m     B7
Nesse mar os segundos 
 F#m           F#m7M B
Insistem em naufragar
   F#m         B7
Esse mar me seduz
 F#m           F#m7M B
Mas é só pra me afogar
Compositor George Israel / Paula Toller
Colaboración y revision:
369 reproducciones
    • ½ Tom
    • A
    • Bb
    • B
    • C
    • Db
    • D
    • Eb
    • E
    • F
    • F#
    • G
    • Ab
  • Adicionar à lista

    0 comentarios

    Mostrar mais comentários

    ¿Conseguiste tocar?

    2 Tocaron 0 Ainda não

    Grave um vídeo tocando Nada Sei e mande pra gente!

    00:00 / 00:00
    outros vídeos desta música
    repetir qualidade Automático
    Outros vídeos desta música
    00:00 / 00:00
    Automático
    OK