Cifra Club

No Meio da Rua

Kid Abelha

Tablatura: Principal (guitarra)
Tom: C
George Israel / Paula Toller 
 
Intro: C  F  G

...de santa         Solo:
E|---------------8--|-8-8-8-8-8--12---------------------------------------------------------------
B|------------------|-8-8-8-8-8-----12-10---------------------------------------------------------
G|-9---9-10-9-------|-9-9-9-9-9-----------11------------------------------------------------------
D|------------10----|------------------------12--------------9------9-11-12-11-9------------------
A|------------------|-----------------------------------9-10---12----------------12-10-9----------
E|------------------|-----------------------------10-12----------------------------------12-10-8--

E|---------------------------------5--8-7-5---5---------------------------------------------------
B|------------------------------------------8---8-6-5---------------------------------------------
G|-9-------------9----------9-------------------------7---7-4/5-7-4/5-----------------------------
D|---12-10-12-10---12-10-12---10------------------------------------------------------------------
A|---------------------------------------------------------------------7/10---7/10---7/10---12----
E|---------------------------------------------------------------------5/8----5/8----5/8----10----

C                  F         G
Como é que a moça passa por aqui
C               F     G
Fazendo cara de santa
C            F    G       C            Dm7
Ela já tem a vida ganha, não pode reclamar
D#
A solidão é meu passatempo e o sol despertador

De vez em quando ela dorme no chão
Achando a cama muito mole
Eu moro mesmo no meio da rua
Prá mim a vida é dura
Mas meu teto tem estrelas
                       C Am
E no alto um disco voador
   F    G       C Am
Voando sobre o mar
    F   G     C  Am
Mudando de lugar
    F    G     C Am   F     G
Querendo me levar prá outro mundo

Eu atrapalho seu caminho noturno
Notando seus defeitos um por um
Prendeu seu salto dentro de um bueiro
Perdeu todo o respeito
Vou matando assim meu tempo
Esperando um disco voador...
reproducciones 60
Acordes para:

    0 comentarios

    mostrar más comentarios

    ¿Conseguiste tocar?

    0 tocaron 0 aún no

    ¡Graba un vídeo tocando No Meio da Rua y envianoslo!

    00:00 / 00:00
    outros vídeos desta música
    repetir qualidade Automático
    Outros vídeos desta música
    00:00 / 00:00
    Automático
    OK