Cifra Club

Quem Tem Medo de Brincar de Amor

Kid Abelha

Tablatura: Principal (guitarra)
Tom: C
Intro:                                                    refrão:
E|-----------7-7-7-------------------7-7-7---------9-9-9--|--------------------------------------
B|-----------7-7-7-------------------7-7-7---------9-9-9--|--------------------------------------
G|--------------------------------------------------------|--------------------------------------
D|--------------------------------------------------------|--------------------------------------
A|---4-5-7-----------4-5-----4-5-7-----------4-5----------|-7-5-------5-7-5-------5-7---5-3------
E|-7---------------7-------7---------------7--------------|-----7-4-7-------7-4-7-----------6-3--

                      Solo:
E|--------------------|--------------------------------------------------------------------------
B|--------------------|-12-10----12-12--12-12-10-10----------------------------------------------
G|--------------------|-------12--------------------12-12-11-9-------------------(12)-9----(12)--
D|--------------------|----------------------------------------9-12-9----------------------------
A|---3-5-3-------5-3--|-----------------------------------------------12-10-12-------------------
E|-6-------6-3-6------|--------------------------------------------------------------------------

E|--------------12-------------------------------------------------------------------------------
B|------------------15-15-13-13-12-12------------------------------------------------------------
G|-9-11-12-13-------------------------15-13-13----15-13------------------------------------------
D|---------------------------------------------15-----------9\7\5--------------------------------
A|-----------------------------------------------------------------------------------------------
E|-----------------------------------------------------------------------------------------------



Arnaldo Baptista / Rita Lee

[Intro:] E

E
Sentado à noite na porta da rua
          Bm
Eu sou menino
E
Sentada comigo na porta da rua
            Bm
Ela é menina

Am   Bm                Am
Ah! Deixa pra lá meu amor
      Bm  Am
Vem comigo
   Bm                       Am
Esqueça este drama e o que for
        Bm
Sem sentido

Beijando, voando, abraçando a menina
Eu sou menino
Sentada comigo na porta da rua
Ela é menina

Ah! Hoje em dia tudo mudou
Deixa disso
Não guarde prá si o que é meu
Vem comigo

Ama não ama se ama me chama que eu vou
Ama não ama se ama me chama que eu vou
reproducciones 19
Acordes para:

    0 comentarios

    mostrar más comentarios

    ¿Conseguiste tocar?

    0 tocaron 0 aún no

    ¡Graba un vídeo tocando Quem Tem Medo de Brincar de Amor y envianoslo!

    00:00 / 00:00
    outros vídeos desta música
    repetir qualidade Automático
    Outros vídeos desta música
    00:00 / 00:00
    Automático
    OK