Cifra Club

Quero Te Encontrar

Kid Abelha

Tablatura: Principal (guitarra)
Tom: A
[Intro]  A/C#  Db/F  A/C#  Db/F
         A9  Bm7  A9  Bm7

  A9
Quando você vem
        Bm7
Pra passar o fim de semana
    A9
Eu finjo estar tudo bem,
 Bm7
Mesmo duro ou com grana

      C#m
 Você ignora
 Bm7
Tudo que eu faço
 C#m
Depois vai embora
 E4/7/9
Desatando os nossos laços

  A9
Quero te encontrar
Quero te amar
 Bm7              Bm4
Você pra mim é tudo
 Bm7                  Bm4
Minha terra, meu céu meu mar

[Solo]

    Bm                              C#m
E|-------------------------------|-----------------12-10----10-----------|
B|-12-10-12-12--10-12-12--10-14--|-12-10-12-12--10-------14----14-12-10--|
G|-------------------------------|---------------------------------------|     
D|-------------------------------|---------------------------------------|
A|-------------------------------|---------------------------------------|
E|-------------------------------|---------------------------------------|

    Bm                       C#m
E|----------------------17-|-17-17-14----14--17-17-14----|
B|-12-12-14-14-17-17-19----|----------17--------------17-|
G|-------------------------|-----------------------------|
D|-------------------------|-----------------------------|
A|-------------------------|-----------------------------|
E|-------------------------|-----------------------------|

    Bm                  E4/7/9
E|-/21-19-17----19-17-|
B|-----------19-------|
G|--------------------|
D|--------------------|
A|--------------------|
E|--------------------|

     C/E      A        C/G
Meu mar, meu mar, meu mar
 E4/7/9                   A/C#  Db/F
Minha terra, meu céu meu mar
reproducciones 145
Acordes para:
    Composição: Buchecha Colaboración y revision:
    • Marcos Paulo
    • Werewolf Guitar

    0 comentarios

    mostrar más comentarios

    ¿Conseguiste tocar?

    6 tocaron 1 aún no

    ¡Graba un vídeo tocando Quero Te Encontrar y envianoslo!

    00:00 / 00:00
    outros vídeos desta música
    repetir qualidade Automático
    Outros vídeos desta música
    00:00 / 00:00
    Automático
    OK