Cifra Club

Quero Te Encontrar

Kid Abelha

Tab de bajo: Principal
intro/refrao
G |----------------|
D |----------------|
A |--0--0--2--4--4-|   (2x)
E |----------------|

G |-------------------|
D |--2--2--0--0-------| (2x)
A |--------------4--2-|
E |-------------------|

Quando você vem...
G |----------------|
D |----------------|
A |--0--0--2--4--4-|  
E |----------------|

G |-------------------|
D |--2--2--0--0-------| 
A |--------------4--2-|
E |-------------------|

é que você ignora..

G |-------------|
D |-------------|
A |--4--4--2--2-|
E |-------------|

desatando os nossos laços..
G |-------------------|
D |--2--2--0--0-------| 
A |--------------4--2-|
E |-------------------|


_______________________________________________________
Contribuição: Bruno Custódio(bdnc@ibest.com.br)
Composición de Buchecha
56 vistas

0 comentarios

Ver todos los comentarios

¿Lograste tocar?

0 Tocaron 0 Aún no

¡Graba un video tocando Quero Te Encontrar y envíanoslo!

00:00 / 00:00
Outros vídeos desta música
Repetir Calidad Automático
Outros vídeos desta música
00:00 / 00:00
Automático
OK