Cifra Club

Smoke On The Water

Kid Abelha

Tablatura: Principal (guitarra)
Tom: C
Ian Gillan / Roger Glover / Jon Lord / Ian Paice / Blackmore

Solo:
E|--------------------------------------------------5-5-7-8-7-5---------------------------
B|-10-----------------------------------------------------------8-6-5---------------------
G|----9----------9----------------------------------------------------7-5-4-----7-7----5--
D|------12-10-12---12--12-12----10-12---------------------------------------7-5------7----
A|---------------------------12-------12-12-12-12-----------------------------------------
E|----------------------------------------------------------------------------------------

E|---------------------------------------------------------------------12-12----12-12--12-
B|----------------------------13-12-13-12-13--15-13-12-13-13--15-13-12-------15-----------
G|-------------------4-5-5----------------------------------------------------------------
D|-7-7-5-----5-7-5-7----------------------------------------------------------------------
A|-------7-5------------------------------------------------------------------------------
E|----------------------------------------------------------------------------------------

E|-12-12-12-12-12-1210-8-10-10----15-17-15-17----15-17-17---19-20-19-20-22---20-19-17----
B|---------------------------------------------17-----------------------------------------
G|----------------------------------------------------------------------------------------
D|----------------------------------------------------------------------------------------
A|----------------------------------------------------------------------------------------
E|----------------------------------------------------------------------------------------

E|---------------------------------------
B|-20-19-20-19-20-19-19-17-19-17-19-19---
G|---------------------------------------
D|---------------------------------------
A|---------------------------------------
E|---------------------------------------


[Intro:] Am C D7

Am
We all came out to Montreux
C           D7      Am
On the Lake Geneva shoreline
To make records with a mobile
C           D7      Am
We didn't have much time

Frank Zappa and the Mothers
Were at the best place around
But some stupid with a flare gun
Burned the place to the ground

D            F       Am     C     D  Am C Eb/G D/F#
Smoke on the water, fire in the sky
D            F
Smoke on the water
Am C D Am C Eb/G D/F#
Am C D C Am

They burned down the gambling house
It died with an awful sound
Funky Claude was running in and out
Pulling kids out the ground

When it all was over
We had to find another place
But Swiss time was running out
It seemed that we would lose the race
reproducciones 69
Acordes para:

    0 comentarios

    mostrar más comentarios

    ¿Conseguiste tocar?

    1 tocaron 0 aún no

    ¡Graba un vídeo tocando Smoke On The Water y envianoslo!

    00:00 / 00:00
    outros vídeos desta música
    repetir qualidade Automático
    Outros vídeos desta música
    00:00 / 00:00
    Automático
    OK