Cifra Club

Te Amo Pra Sempre

Kid Abelha

Tablatura: Principal (guitarra)
Tom: F#
solo:
E|------------------------|-----------------------------
A|------------------------|-----------------------------
D|---4--------------------|---4---------------------4---
G|-3---3------------------|-3---3-4-3-2-2-2-3-4-3-2-3---
B|-------2-4-5---5-4-5-4--|-------------------------2---
E|------------------------|-------------------------2---

Intro(acústico):        8X                3X
E|------------------|-----------|----------------------------|-2-4-5-6---
B|------------------|-----------|----------------------------|-2-4-5-6---
G|----------4/7--9--|-----------|-5/6-------4----------------|-3---------
D|-4/7--9---4/7--9--|-3/4-------|-5/6-8-6-8-4-4-6-4-6-4------|-4---------
A|-4/7--9---2/5--7--|-3/4-6-7-6-|-----------------------7-6--|-----------
E|-2/5--7-----------|-----------|----------------------------|-----------

refrão:
E|-------------------------0------|-1/2-2-2-1/2-2-2-1/2-2-2--
B|-------0----0---------0----0----|-1/2-2-2-1/2-2-2-1/2-2-2--
G|-----2----2---2-----2--------2--|--------------------------
D|-4-4------------4-4-------------|--------------------------
A|--------------------------------|--------------------------
E|--------------------------------|--------------------------


George Israel / Paula Toller

C#         B          C#      B
Pra conservar o amor, há que se inventar
C#          B          F#
Uma forma inédita de amar
C#      B          C#      B
Se ele não vingar, há que se tentar
C#        B          F#
Uma transformação, uma revolução

F#          A          B (A)    F#
Te amo prá sempre, te amo demais
             A       B (C#)
Até daqui a pouco, até nunca mais
F#          A          B (A)    F#
Te amo prá sempre, te amo demais
             A       B   (C#)
Até daqui a pouco, até nunca

Fique bem quietinha então, que eu já volto já
Não faça nada que eu não vá gostar
Enquanto você pensa em me beijar
Eu penso no jantar, eu olho para o céu
Eu olho para o mar

Obs: notas entre () são do acústico.
reproducciones 131
Acordes para:

    0 comentarios

    mostrar más comentarios

    ¿Conseguiste tocar?

    2 tocaron 0 aún no

    ¡Graba un vídeo tocando Te Amo Pra Sempre y envianoslo!

    00:00 / 00:00
    outros vídeos desta música
    repetir qualidade Automático
    Outros vídeos desta música
    00:00 / 00:00
    Automático
    OK