Cifra Club

Todo Meu Ouro

Kid Abelha

Tablatura: Principal (guitarra)
Tom: E
Intro(3X):                     noto vc...           desejo...
E|-5-7----9--7-----5-7----9--7--|--------------------|-4---4---4---2---4---4---4---4---|-5---7----
B|-5-7-9--9--7--9--5-7-9--9--7--|-5---5---5---5---7--|---4---5---5---4---4---5---5---5-|---7---7--
G|-6-8-9--10-8--9--6-8-9--10-8--|---4---4---4---4----|---------------------------------|----------
D|-7-9-9--11-9--9--7-9-9--11-9--|--------------------|---------------------------------|----------
A|------------------------------|--------------------|---------------------------------|----------
E|------------------------------|--------------------|---------------------------------|----------

Solo:
E|-----------------------9---------------------------------7---------------------------------
B|-----7h9h10--------------10-9-10-9-10-10-7h9h10---10-9-7----10-9-7----------------------7--
G|-8h9--------11p9p8-------------------------------------------------9-8-9------6-8-6-8-9----
D|-------------------9--------------------------------------------------------7--------------
A|--------------------------------------------------------------------------7----------------
E|-------------------------------------------------------------------------------------------

E|-------------12--------------------------------16-16-17-17-19-19-17-17-16-16-17-17-21-19---
B|-12--10-9-10-----9-10-12-10-9-9------------------------------------------------------------
G|--------------------------------11-9-8-----------------------------------------------------
D|---------------------------------------11-9------------------------------------------------
A|-------------------------------------------------------------------------------------------
E|-------------------------------------------------------------------------------------------



E            B          A
De longe eu penso em você
E          B         A
E com meus olhos fechados
E           B         A     G#m B
Te vejo ao lado respirando
E           B           A
Sinto um calor se propagando

Noto você na minha frente
Se materializar na minha frente
E volto a ver o teu tamanho
Saber o teu lugar

G#m C#m       A    B
E desejo o desejo
G#m  C#m         A
Do perigo de um novo jeito

Um mar de lava incandescente
Faz de repente ver
Que eu quero esse mistério sempre
Não quero te perder

G#m C#m       A   B
E desejo o perigo
G#m  C#m         A        E/G# F#m B
Do desejo de um novo jeito

        E          F#m7(11)
Arrisco todo o meu ouro
C#m                E
Dou meu amor como garantia
A              E/G#
Para encontrar um tesouro
A            F#m7  E F#m7(11)
E não bijuteria
reproducciones 53
Acordes para:

    0 comentarios

    mostrar más comentarios

    ¿Conseguiste tocar?

    1 tocaron 0 aún no

    ¡Graba un vídeo tocando Todo Meu Ouro y envianoslo!

    00:00 / 00:00
    outros vídeos desta música
    repetir qualidade Automático
    Outros vídeos desta música
    00:00 / 00:00
    Automático
    OK