Cifra Club

Vou Mergulhar

Kid Abelha

Tablatura: Principal (guitarra)
Tom: C
George Israel / Paula Toller

Solo:
E|------------------------------------------------------5-----3-5-3-------------------------------
B|-------------------------5----------------------------5--5--------(6-5-3------------------------
G|---5-7-7--7-5-7--7-5-7-5------5-7-7--7-5-7--7-5-7-5----------------------5-4-2------------------
D|-7--------------------------7-----------------------7--------------------------5-3-2---------2)-
A|-------------------------------------------------------------------------------------5-3-5-3----
E|------------------------------------------------------------------------------------------------

()=algumas notas tocadas 2 ou 3 vezes.

E|--------------------3-3---
B|--------------------3-3---
G|-----------2-4-5-2--------
D|---------5----------------
A|-5-3-5--------------------
E|-------5------------------


Am                  C D
Vou mergulhar no mar
Am
Mesmo com a água impura
                   C D
E vou beber o vinho
Am
Acima da temperatura

        F
Prá que eu me divirta
         Em
Às vezes basta um sorriso
         Dm
Às vezes uma palavra 
           C         F Em D
É tudo que eu preciso

Vou correr atrás da bola
Até o juiz apitar
Trabalhar por prazer
Até o dia clarear

O dia tá bonito
Mesmo com temporal
E o Rio de Janeiro
Continua lindo

Vou mergulhar no mar
Mesmo com a praia escura
Vou gozar a liberdade
De uma vida sem frescura

Pra que eu me divirta
Basta um dia bonito
Usar a cor azul do céu 
No meu vestido

F           D#º
Posso enxergar ao longe
    C            Am
No meio da cerração
F         D#º
Posso ancorar no espaço
  C            Am
A minha embarcação
F                Em
A noite vai reluzir
       Am      D7
Mesmo sem lua cheia
F                Em
A vida será perfeita
E               Am  E Am
Mesmo sem perfeição
reproducciones 19
Acordes para:

    0 comentarios

    mostrar más comentarios

    ¿Conseguiste tocar?

    0 tocaron 0 aún no

    ¡Graba un vídeo tocando Vou Mergulhar y envianoslo!

    00:00 / 00:00
    outros vídeos desta música
    repetir qualidade Automático
    Outros vídeos desta música
    00:00 / 00:00
    Automático
    OK