Cifra Club

As It Is Infinite

Kiko Loureiro

Cifrado: Principal (guitarra y guitarra eléctrica)
tono: G
|--------------0--------0----|--------------0--------0----|
|-----------1----1---3-------|-----------1----1---3-------|
|--------4-----------5-------|--------4-----------5-------|
|-----2--------------4-------|-----2--------------4-------|
|-0------------------0-------|-0------------------0-------|
|----------------------------|----------------------------|
  let ring          arp.       let ring          arp.

|-7--7--5----10-9-8----|-7--5--------3-----------0-----------|
|----6--------------9--|-5-----5--------7----6-----3---------|
|----5-----------------|-5--------5----------5--------5--4/5-|
|----0-----------------|-4-------------------3---------------|
|----------------------|-0-----------------------------------|
|----------------------|---------------------4---------------|
    arp.                arp.                arp. let ring

|--------------0--------0----|-7--7--5------10-9-8/12--|-7--5--------3---------0----------|
|-----------1----1---3-------|----6-----6/8------------|-5-----5--------7---6----3--------|
|--------4-----------5-------|----5--------------------|-5--------5---------5------5--4/5-|
|-----2--------------4-------|----0--------------------|-4------------------3-------------|
|-0------------------0-------|-------------------------|-0--------------------------------|
|----------------------------|-------------------------|--------------------4-------------|
  let ring          arp.         arp.                    arp.              arp. let ring

|--------------0--------0------|--------------0--------0-----|
|-----------1----1---3-----(3)-|-----------1----1---3--------|
|--------4-----------5---------|--------4-----------5--------|
|-----2--------------4---------|-----2--------------4--------|
|-0------------------0---------|-0------------------0--------|
|------------------------------|-----------------------------|
  let ring          arp.         let ring          arp.
                                                                      *
|--------------------------0---0-------------|------------------------------------|
|-0--1-1--(1)-1--(1)-1--1------3---3--3----3-|-3-3---3-3---3-3------6-6----5------|
|----2-----3------2-----3------2------2------|-2-----2-----5-----7----7----5------|
|----2-----4------3-----2-------------3------|-3-----3-----6-----6----9----9------|
|----0---------------------------------------|-2-----------7----------0----0------|
|----------4------3-----2------1------1------|-------1-----0-----6----------------|
    arp.               arp.   arp.   arp.     arp.        arp.       arp. arp.
                                                                      *
|--------------------------0---0-------------|------------------------------------|
|-0--1-1--(1)-1--(1)-1--1------3---3--3----3-|-3-3---3-3---3-3------6-6---8\--5---|
|----2-----3------2-----3------2------2------|-2-----2-----5-----7----7-------5---|
|----2-----4------3-----2-------------3------|-3-----3-----6-----6----9-------9---|
|----0---------------------------------------|-2-----------7----------0-------0---|
|----------4------3-----2------1------1------|-------1-----0-----6----------------|
    arp.               arp.   arp.   arp.                 arp.       arp.    arp.

|-7--7--5----10-9-8----|-7--5--------3-----------0-----------|
|----6--------------9--|-5-----5--------7----6-----3---------|
|----5-----------------|-5--------5----------5--------5--4/5-|
|----0-----------------|-4-------------------3---------------|
|----------------------|-0-----------------------------------|
|----------------------|---------------------4---------------|
    arp.                arp.                arp. let ring

|--------------0--------0----|--------------0--------0----|
|-----------1----1---3----3--|-----------1----1---3-------|
|--------4-----------5-------|--------4-----------5-------|
|-----2--------------4-------|-----2--------------4-------|
|-0------------------0-------|-0------------------0-------|
|----------------------------|----------------------------|
                    arp.                         arp.

|--------0-0--1-1-3/5--5-------5--------|--------0-0--1-0h1p0-----0-----------------------------|
|-3--3-3------3---1----------3---3------|-3--3-3------0---------3----3------3-1------1-0------0-|
|----3-3------3---0--------2-------2----|----1--------1-------------------1--------1--------1---|
|----0-0------0--------4-------------4--|----0--------------------------2--------2--------2-----|
|---------------------------------------|-------------------------------------------------------|
|----3-3------3---3---------------------|----1--------1--------------0--------------------------|
            arp. arp.                         arp.     arp.          let ring
                                                                        
|---------------------1-0-----0-------0--3/5-|-5-------5/7-----------------3--8-5----12----10--|
|-1-----------------------3---------1--------|---------------8--8------5/6----6------10--------|
|---2---------------4-------------0----------|---5----(5/7)-----0------5------5------10--------|
|-----2-----------2-------------2------------|-3----3--3/5-------------3-----------------------|
|-0------3-2-0-------------------------------|-----------------7-------5------5-----/10--------|
|--------------4--------------3--------------|-------------------------------------------------| 
 arp.          let ring      let ring          let ring     let ring   arp.  arp.   arp.

|-----------------------1-0------0------0--3/5-|-5--------5/7-----------------3----------0--|
|---1-----------------------3---------1--------|----------------8--8------5/6---6-----0-----|
|-----2---------------4-------------0----------|---5-----(5/7)-----0------5-------5---1-----|
|-------2-----------2-------------2------------|-3---3----3/5-------------3-----------3-----|
|-0--------3-2-0-------------------------------|-----------------7--------5-----------------|
|----------------4--------------3--------------|--------------------------------------3-----| 
  let ring       let ring      let ring          let ring     let ring   arp.        arp.

|--------------0--------0----|--------------0--------(0)--|
|-----------1----1---3-------|-----------1----1---3-------|
|--------4-----------5-------|--------4-----------5-------|
|-----2--------------4-------|-----2--------------4-------|
|-0------------------0-------|-0------------------0-------|
|----------------------------|----------------------------|
  let ring          arp.       let ring          arp.

|-7--7--5----10-9-8----|-7--5--------3-----------0------------|
|----6--------------9--|-5-----5--------7----6-----3----------|
|----5-----------------|-5--------5----------5--------5--4/5\-|
|----0-----------------|-4-------------------3----------------|
|----------------------|-0------------------------------------|
|----------------------|---------------------4----------------|
    arp.                arp.                arp.

|--------------------------|----------2-0----------4----------|
|-1----0-----------0-------|--------4--------------1----------|
|-1----2---2---2-------1---|------5----------------4----------|
|-0----0-------0-------3---|----6------------------2----------|
|--------------------------|-0----------------0---------------|
|-1----2-------3-------3---|----------------------------------|
 arp. arp.    arp.    arp.   let ring    let ring arp.

Last chord can be played like this too:
|----4--|
|----0--|
|----5--|
|----2--|
|-0-----|
|-------|

* Not sure if he plays this chord instead
|---|
|-6-|
|-7-|
|-6-|
|-0-|
|---|

00:00 / 00:00
Otros videos de esta canción
Repetir
Otros videos de esta canción
Compositor no encontrado.
Colaboración y revisión:
  • Lucas Barreto
176 vistas
    • ½ Tono
    • A
    • Bb
    • B
    • C
    • Db
    • D
    • Eb
    • E
    • F
    • F#
    • G
    • Ab
  • Agregar a la lista

    0 comentarios

    Ver todos los comentarios

    ¿Lograste tocar?

    1 Tocaron 0 Aún no

    ¡Graba un video tocando As It Is Infinite y envíanoslo!

    00:00 / 00:00
    OK