Cifra Club

Beautiful Language

Kiko Loureiro

Cifrado: Principal (guitarra y guitarra eléctrica)
tono: Db
e|----------------------------------------------------------
B|-------------------------------------------------------6-
G|--------------------------5-----------7------5---------
D|-------------5-----7--8-------7--8---------------------
A|---5--7--8-----------------------------------------------
E|----------------------------------------------------------

e|---------------------------------------------------------
B|--------------------------------------------6--6/8------
G|-------------------------------------5--7---------------
D|----/7--7--7--7h8--7--5------5-----------------------
A|---------------------------------------------------------
E|---------------------------------------------------------

e|----------------------------------------------------------
B|----8/11h8-8\6--6--6----------------------------------
G|----------------------------8p7--8/10--10-----8--10-
D|----------------------------------------------------------
A|----------------------------------------------------------
E|----------------------------------------------------------

e|----------------------------------------------------------
B|----------------------------------------------------------
G|-10/11--10---------------------------------------------
D|----------------------------------------------------------
A|----------------------------------------------------------
E|----------------------------------------------------------

e|-----------------------------------------------------------
B|-----------------------------------------------------------
G|----------------------7--7--7--7--7--5----/10-----------
D|-------------5----8---------------------------------------
A|---5--7--8------------------------------------------------
E|-----------------------------------------------------------

e|------------------------------------------------------------
B|-----------------------------------------------------------
G|-----------------------------------------------------------
D|--8p7--8/10--10--10--12--10--8----------------------
A|----------12--12--12--13--12--10---------------------
E|-----------------------------------------------------------

e|-----------------------------------------------------------
B|---------------6--6/8--/11--8--8 / 6---6----6---------
G|-------5--7-------------------/12/10--10--10----------
D|----5-----------------------------------------------------
A|-----------------------------------------------------------
E|-----------------------------------------------------------

e|----------------------------------------------------------
B|-------------------------------------------------------7--7
G|-------8p7--8/10--10--10-------7--10--10--10-----
D|--------------------------------8-------------------------
A|----------------------------------------------------------
E|----------------------------------------------------------

e|--6--9--8-------6------------------------------------------
B|------------9--------9--7---7p6------6---------------------
G|------------------------------------8-----8p6p5------------
D|--------------------------------------------------------------
A|---------------------------------------------------------------
E|--------------------------------------------------------------

e|----------------------------------------------------------------
B|-4h6p4p2----------2---------------1------------1------------
G|--------------5--3------5p3-----\1-----3--1--3-----3--------
D|----------------------------------------------------------3------
A|------------------------------------------------------------------
E|------------------------------------------------------------------

e|-----------------------------------------------------------------
B|----------------------------------------------------------------
G|-------3--5--3-----5--6--5-------6--8--6-------8--10--8--
D|----6------------8------------10-------------11--------------
A|-----------------------------------------------------------------
E|-----------------------------------------------------------------

e|-----------------------------------------------------
B|------11--13--11----------------------------------
G|-13-----------------------5--6--5------5--6--5---
D|-----------------------8-------------8--------------
A|-----------------------------------------------------
E|-----------------------------------------------------

e|-----------------------------------------------------------
B|-----------------------------------------------------------
G|-----5--6-------5--------6--8--6-------6--8--6--------
D|--8----------8-------10------------10-------------10---
A|-----------------------------------------------------------
E|----------------------------------------------------------

e|----------------------------------------------------------
B|-------------------------------------------6\-------------
G|-6--8-----6--8--9--6-----6--9--6----------------------
D|------------------------6-------------6------------------
A|-----------------------------------------------------------
E|-----------------------------------------------------------

e|-------------------------------------------------------------
B|-------------------------------------------------------------
G|---------------------------------5---------5--/7--5---/10--
D|------------5--7--8--5--7--8------7--8-------------------
A|--5--7--8---------------------------------------------------
E|---------------------------------------------------------------

e|-------------------------------------------------------
B|--------------------------------------------------------
G|--------------------------------------------------------
D|---10--10--10--12--10-- 8--------------------------
A|---12--12--12--13--12--10-------------------------
E|---------------------------------------------------------

e|-------------------------------------------------------------
B|----------------6--6/8--8/11--8\6-----6/8--6-----------
G|-----5--7--8------------------------8-----------8--7--5-
D|--5--------------------------------------------------------
A|-----------------------------------------------------------
E|------------------------------------------------------------

e|-------------------------------------------------------
B|---------6---6------6---6------7-6-7-6-7-6-7-7-6-
G|--7--8-----------8----------8--------------------------
D|----------------------------------------------------------
A|----------------------------------------------------------
E|---------------------------------------------------------

e|----------------------------------------------------------
B|---/8------------------------8-----------------------10-
G|-------7----------------7-------7---------------7------
D|-----------10--8--10--------------10--8--10---------
A|---------------------------------------------------------
E|---------------------------------------------------------

e|----------------------------------------------------------
B|----------------------10---------------------------------
G|-7----------------7-------7---------------7-------------
D|-----10--8--10--------------10--8--10-----------------
A|------------------------------------------------------------
E|------------------------------------------------------------

e|-------------------------------------------------------------
B|---11----------------------------13------------------------
G|-------10-----------------10----------12-----------------
D|------------13--12--13---------------------15--13--15--
A|-------------------------------------------------------------
E|---------------------------------------------------------

e|-------------------------------------------------------
B|-13----------------------------13--13--------13------
G|-------12-----------------12-----------12--------------
D|-----------15--13--15---------------------------------
A|---------------------------------------------------------
E|---------------------------------------------------------

e|--------------------------------------------------------
B|--/15--13--11---/15--15p13--11--10---/11--10--
G|-------------------------------------------------------
D|--------------------------------------------------------
A|---------------------------------------------------------
E|-------------------------------------------------------

e|----------------------------------------------------------------
B|----------------------------------------------------------------
G|-12------------------------------------------------------------
D|------12---------------------------12/13------------10h12--
A|-----------13--12--10--12--13-----------12--13-----------
E|----------------------------------------------------------------

e|-------------------------------------------------------------
B|--------------------------------------------------------------
G|-------------------------------------------------------------
D|------------------------------------------------------------
A|--12--13--12--10--12--13--------------------------------
E|--------------------------------10--------------------------

e|-----------------------------------------------------------------
B|-8-----------------------8---------------------10------------------
G|----7----------------7-----7---------------7------7----------------7-
D|-------10--8--10------------10--8--10-------------10--8--10----------
A|---------------------------------------------------------------------
E|--------------------------------------------------------------------

e|----------------------------------------------------------
B|10------------------------11---------------------------
G|-----7----------------7-------10-----------------10-----
D|---------10--8--10----------------13--12--13----------
A|-------------------------------------------------------------
E|-------------------------------------------------------------

e|---------------------------------------------------------------
B|-11---------------------------13--------------------------13-
G|---------10-----------------10------12-----------------12-----
D|--------------13--12--13----------------15--13--15-------
A|---------------------------------------------------------------
E|---------------------------------------------------------------

e|------------------------------------------------------
B|--11--13/15--13--11--13/15--13--11--10-------
G|-------------------------------------------------12--
D|-------------------------------------------------------
A|-------------------------------------------------------
E|---------------------------------------------------------

e|-------------------------------------------------------
B|--10/11--10------------------------------------------------
G|----------------12-----------------------------------------
D|---------------------12----------------------------12h13---
A|--------------------------13--12---10--12--13--------------
E|----------------------------------------------------------

e|-----------------------------------------------------------
B|----------------------------------------------------------
G|-------------------------------------------------------
D|------------10/12------------------------------------------
A|--12--13-----------12--13--12--13--12--10----10--12--13--
E|----------------------------------------------------------

e|-----------------------------------------------------
B|-----------------------------------------------------
G|------------------12--14--14/15--14--15--14----
D|--10--12--13--------------------------------------
A|-----------------------------------------------------
E|----------------------------------------------------

e|-----------------------------------------------------------
B|-----------------------------------------------------------
G|--12--14--12------------------------------------------------
D|-----------------13//15--13--15--13--12--13--12--10--12--13-
A|------------------------------------------------------------
E|------------------------------------------------------------

e|--------------------------------------------------
B|--------------------------------------------------
G|--10--12--14----14/15---------12------------
D|---------------------------------------------------
A|--------------------------------------------------
E|-------------------------------------------------

00:00 / 00:00
Otros videos de esta canción
Repetir
Otros videos de esta canción
Composición de Kiko Loureiro
Colaboración y revisión:
  • Gonzalo Gutierrez
110 vistas
    • ½ Tono
    • A
    • Bb
    • B
    • C
    • Db
    • D
    • Eb
    • E
    • F
    • F#
    • G
    • Ab
  • Agregar a la lista

    0 comentarios

    Ver todos los comentarios

    ¿Lograste tocar?

    2 Tocaron 0 Aún no

    ¡Graba un video tocando Beautiful Language y envíanoslo!

    00:00 / 00:00
    OK