Cifra Club

Choro De Criança

Kiko Loureiro

Cifrado: Principal (guitarra y guitarra eléctrica)
tono: C
Choro De Criança
Kiko Loureiro - Tabbed & Transcribed  By  Felipe Selis
pm = palm muting
h = hammer on
p = pull off
( ) = harmonic note
/ = slide
b = bend

nylon acoustic guitar, fingerstyle

e|--------5---8-----7--5-----------------------
B|---5-------------5-----5---------------------
G|----------------5--------5--4----------------
D|-------------------------------7-------------
A|---------------0-----------------7-----------
E|-----------------------------------8--7--5---

e|--------------------------0---------0--------
B|------6---------6-------5---5-----5---5------
G|----7---------7------------------------------
D|--7---------7---------7---------6---------5--
A|----------7---------0------------------------
E|---------------------------------------------

e|--------0------0----------------------------
B|-5----------3-----3-------------------------
G|--------------------------------------------
D|------------4--5--4-------------------------
A|--------------------------------------------
E|--------------------------------------------

e|--------5---8-----7--5-----------------------
B|--3/5------------5-----5---------------------
G|----------------5--------5--4----------------
D|-------------------------------7-------------
A|---------------0-----------------7-----------
E|-----------------------------------8--7--5---

e|------------------------------6---3----5------
B|------6---------6-------------------5---------
G|----7---------7----------0--------------------
D|--7---------7----------8----------------------
A|----------7----------7------------------------
E|-------------------0--------5-----------------

e|----------------------5----------------------
B|----8--6p5--6-------6--------3---5---6-------
G|---5--------------5--------------------------
D|--7------------------------------------------
A|-5--------------5-------------5---4---3------
E|---------------------------------------------

e|----7---------------------7-------------------
B|---6---5h6---------6-----6---5h6--------6--5--
G|--7--------7--6h7-------7--------7--6h7-------
D|----------------------------------------------
A|----------------------------------------------
E|-7--------------------0-----------------------

e|----7p5----------------------7---p0-----------
B|--------5----------5-5--------------5---------
G|----------5--4--5---------------------5-4h5---
D|----------------------------------------------
A|-0--------------------------------------------
E|-------------------------3--------------------

e|---0-------------3-----------------2----------
B|----------------------------------------------
G|-4-----------0----0---0----0---0--------------
D|-----------4---4----4---4----4---4------------
A|---------------------------2------------------
E|---------2------------------------------------
(not quite sure this part)
e|--------------0--------------------3-------4--
B|------------6---6------------------5-----5----
G|----------7-------7-----------5----5---5------
D|--------7-----------7-------6-----------------
A|--------------------------7-------------------
E|---2/7------------------0---------------------

e|--------5---8-----7--5------------------------
B|---5-------------5-----5----------------------
G|----------------5--------5--4-----------------
D|-------------------------------7--------------
A|---------------0-----------------7------------
E|-----------------------------------8--7--5----

e|--------------------------0---------0---------
B|------6---------6-------5---5-----5---5-------
G|----7---------7-------------------------------
D|--7---------7---------7---------6---------5---
A|----------7---------0-------------------------
E|----------------------------------------------

e|--------0------0------------------------------
B|-5----------3-----3---------------------------
G|----------------------------------------------
D|------------4--5--4---------------------------
A|----------------------------------------------
E|----------------------------------------------

e|--------5---8-----7--5---------/12-11-10------
B|--3/5------------5-----5------------------10/-
G|----------------5--------5--------------------
D|----------------------------------------------
A|---------------0------------------------------
E|----------------------------------------------

e|-----7--------------------------8--7----------
B|----6--6----------6--5--------6---------5h6---
G|---7-----7---6-7------------7-----------------
D|----------------------------------------------
A|----------------------------------------------
E|--7----------------------0--------------------

e|------------------7---------7---------5-------
B|-------6--5------5--5---------5---------5-----
G|--6h7-----------5-----5---------5---------5---
D|----------------------------------------------
A|---------------8---------8---------8----------
E|----------------------------------------------

e|----5--------8---------8---------7------------
B|------5--------5---------5---------5----------
G|--------5--------5---------5---------5--------
D|----------------------------------------------
A|-8---------5--------5---------5---------5-----
E|----------------------------------------------

e|--7---------12-------------12-----------------
B|----5----------10--------------10-------------
G|------5-----------10---------------10---------
D|---------/8-------------8---------------------
A|----------------------------------------------
E|----------------------------------------------

e|-----12------------------------10----8p7------
B|----------10----------------------------------
G|---------------10-----------------------------
D|--8--------------------8----------------------
A|----------------------------------------------
E|----------------------------------------------

e|----------------------------------------------
B|--10------------------------------------------
G|--------10-----9------------------------------
D|--------------------------(7)-----------------
A|-------------------------------------0--------
E|----------------------------------------------

e|----------------------(7)---------------------
B|----------------------------------------------
G|------------------9---------------------------
D|--2/4-------7---------------------------------
A|----------------------------------------------
E|----------------------------------------------
00:00 / 00:00
Otros videos de esta canción
Repetir
Otros videos de esta canción
Composición de Kiko Loureiro
Colaboración y revisión:
  • Thulio melo
  • felipe santana
  • Henrique Almeida
463 vistas
    • ½ Tono
    • A
    • Bb
    • B
    • C
    • Db
    • D
    • Eb
    • E
    • F
    • F#
    • G
    • Ab
  • Agregar a la lista

    0 comentarios

    Ver todos los comentarios

    ¿Lograste tocar?

    6 Tocaron 5 Aún no

    ¡Graba un video tocando Choro De Criança y envíanoslo!

    00:00 / 00:00
    OK