Cifra Club

Dilemma

Kiko Loureiro

Cifrado: Principal (guitarra y guitarra eléctrica)
tono: F
Kiko loureiro ( Guitarra solo )

E||------------------|--------------------------------------------|
B||------------------|--------------------------------------------|
G||------------------|--------------------------------------------|
D||------------------|------------------10-10-9-9-10-10-9-9-10-10-|
A||------------------|--8-8-10-10-11-11---------------------------|
E||------------------|--------------------------------------------|



--------------------------------------------|---------------------|
--------------------------------------------|--9b-----9--8~-------|
--------------------------------------------|---------------------|
------------------10-10-9-9-10-10-9-9-10-10-|---------------------|
--8-8-10-10-11-11---------------------------|---------------------|
--------------------------------------------|---------------------|

--8-9-8-9-------------------------|--------------------------------------------|
----------8-9-8-9-----------------|--------------------------------------------|
------------------8-9-8-9---------|--------------------------------------------|
--------------------------8-9-8-9-|------------------10-10-9-9-10-10-9-9-10-10-|
----------------------------------|--8-8-10-10-11-11---------------------------|
----------------------------------|--------------------------------------------|

--------------------------------------------|--------------13~-------|
--------------------------------------------|--14~-----13------------|
--------------------------------------------|------------------------|
------------------10-10-9-9-10-10-9-9-10-10-|------------------------|
--8-8-10-10-11-11---------------------------|------------------------|
--------------------------------------------|------------------------|

--------------15~-------|--------------------------------------------------|
--14~-----13------------|--------------------------------------------------|
------------------------|--------------------------------------------------|
------------------------|--------------------13-13-12-12-13-13-12-12-13-13-|
------------------------|--11-11-13-13-14-14-------------------------------|
------------------------|--------------------------------------------------|

--------------------------------------------------|
--------------------------------------------------|
--------------------------------------------------|
--------------------13-13-12-12-13-13-12-12-13-13-|
--11-11-13-13-14-14-------------------------------|
--------------------------------------------------|

--11-12-11-12-------------------------------------|
--------------11-12-11-12-------------------------|
--------------------------12-13-12-13-------------|
--------------------------------------12-13-12-13-|
--------------------------------------------------|
--------------------------------------------------|

--11-12-11-12-------------------------------------|
--------------11-12-11-12-------------------------|
--------------------------12-13-12-13-------------|
--------------------------------------12-13-12-13-|
--------------------------------------------------|
--------------------------------------------------|

--10-11-10-11-------------------------------------|
--------------10-11-10-11-------------------------|
--------------------------10-11-10-11-------------|
--------------------------------------10-11-10-11-|
--------------------------------------------------|
--------------------------------------------------|

--10-11-10-11-------------------------------------|
--------------10-11-10-11-------------------------|
--------------------------10-11-10-11-------------|
--------------------------------------10-11-10-11-|
--------------------------------------------------|
--------------------------------------------------|

--8-9-8-9-------------------------|--8-9-8-9-------------------------|
----------8-9-8-9-----------------|----------8-9-8-9-----------------|
------------------8-9-8-9---------|------------------8-9-8-9---------|
--------------------------8-9-8-9-|--------------------------8-9-8-9-|
----------------------------------|----------------------------------|
----------------------------------|----------------------------------|

--7-8-7-8-------------------------|--------------------------6-7-6-7-|
----------7-8-7-8-----------------|------------------6-7-6-7---------|
------------------7-8-7-8---------|----------7-8-7-8-----------------|
--------------------------8-9-8-9-|--8-9-8-9-------------------------|
----------------------------------|----------------------------------|
----------------------------------|----------------------------------|

--12-11-9---------------------------------|
----------12-11-9----9-11-9---------------|
------------------12--------9-8-----------|
--------------------------------11-9-8----|
---------------------------------------11-|
------------------------------------------|

-----------------------------------------|--------------------|------||
-----------------------------------------|--------------------|------||
--9-8------------------------------------|--------------------|------||
------11-9-8----------8------------------|--------------------|------||
-------------11-10-11---11-9-------------|-----------0--------|------||
-----------------------------12-11-9-7-6-|--4-----------------|------||
00:00 / 00:00
Otros videos de esta canción
Repetir
Otros videos de esta canción
Composición de Kiko Loureiro
Colaboración y revisión:
  • Luis Chiaradia
110 vistas
    • ½ Tono
    • A
    • Bb
    • B
    • C
    • Db
    • D
    • Eb
    • E
    • F
    • F#
    • G
    • Ab
  • Agregar a la lista

    0 comentarios

    Ver todos los comentarios

    ¿Lograste tocar?

    0 Tocaron 2 Aún no

    ¡Graba un video tocando Dilemma y envíanoslo!

    00:00 / 00:00
    OK