Cifra Club

Endangered Species

Kiko Loureiro

Cifrado: Principal (guitarra y guitarra eléctrica)
tono: A
E||--7--10------7---------|------------7--10--14--|--7--10------7---------|
B||-----------------------|-----------------------|-----------------------|
G||---------11-----11--7--|-----7--11-------------|---------11-----11--7--|
D||-----------------------|--9--------------------|-----------------------|
A||-----------------------|-----------------------|-----------------------|
E||-----------------------|-----------------------|-----------------------|



---------------------|-----------------|---------------|----------------|
---------------------|-----------------|---------------|----------------|
-----7--9--11--9--7--|--6--------6--7--|--9------------|--11b-----------|
--9------------------|-----------------|---------------|----------------|
---------------------|-----------------|---------------|----------------|
---------------------|-----------------|---------------|----------------|

----------------|---------------------|---------------------|
----------------|--7-8-7--------------|---------------------|
--11------------|---------9--------9--|--7------------------|
----------------|------------9--7-----|-----9--7------------|
----------------|---------------------|-----------10--7--9--|
----------------|---------------------|---------------------|

------------------------|--12--14--15--14-15-14--12--|----------------|
--------------------12--|----------------------------|--15------------|
---------9--11--12------|----------------------------|----------------|
------9-----------------|----------------------------|----------------|
--10--------------------|----------------------------|----------------|
------------------------|----------------------------|----------------|

--------------------|----------------|--------------------|
--15----17----19----|--14------------|--15b---15----14----|
--------------------|----------------|--------------------|
--------------------|----------------|--------------------|
--------------------|----------------|--------------------|
--------------------|----------------|--------------------|

--7--10------7---------|------------7--10--14t-|--15p-14--10--7---------|
-----------------------|-----------------------|------------------------|
---------11-----11--7--|-----7--11-------------|-----------------11--7--|
-----------------------|--9--------------------|------------------------|
-----------------------|-----------------------|------------------------|
-----------------------|-----------------------|------------------------|

---------------------|-----------------|---------------|----------------|
---------------------|-----------------|---------------|----------------|
-----7--9--11--9--7--|--6--------6--7--|--9------------|--11b-----------|
--9------------------|-----------------|---------------|----------------|
---------------------|-----------------|---------------|----------------|
---------------------|-----------------|---------------|----------------|

----------------|---------------------|---------------------|
----------------|--7-8-7--------------|---------------------|
--11------------|---------9--------9--|--7------------------|
----------------|------------9--7-----|-----9--7------------|
----------------|---------------------|-----------10--7--9--|
----------------|---------------------|---------------------|

------------------------|--12--14--15--14-15-14--12--|----------------|
--------------------12--|----------------------------|--15------------|
---------9--11--12------|----------------------------|----------------|
------9-----------------|----------------------------|----------------|
--10--------------------|----------------------------|----------------|
------------------------|----------------------------|----------------|

--------------------|----------------|--------------------|---------------|
--15----17----19----|--14------------|--15b---15----14----|---------------|
--------------------|----------------|--------------------|--7------------|
--------------------|----------------|--------------------|---------------|
--------------------|----------------|--------------------|---------------|
--------------------|----------------|--------------------|---------------|

--------------||
--------------||
--------------||
--------------||
--------------||
--------------||
00:00 / 00:00
Otros videos de esta canción
Repetir
Otros videos de esta canción
Composición de Kiko Loureiro
Colaboración y revisión:
  • Luis Chiaradia
64 vistas
    • ½ Tono
    • A
    • Bb
    • B
    • C
    • Db
    • D
    • Eb
    • E
    • F
    • F#
    • G
    • Ab
  • Agregar a la lista

    0 comentarios

    Ver todos los comentarios

    ¿Lograste tocar?

    0 Tocaron 0 Aún no

    ¡Graba un video tocando Endangered Species y envíanoslo!

    00:00 / 00:00
    OK