Cifra Club

Enfermo

Kiko Loureiro

Cifrado: Principal (guitarra y guitarra eléctrica)
tono: A
            a                    b
E |-----------------------|---------------------|
B |-----------------------|---------------------|
G |---------14-11---------|-14-12-11------------|
D |---------------14-12-11|----------14-12-11---| (ordem - a b a a b)
A |-----------------------|---------------------|
E |-----------------------|---------------------|

           a                         b
E |-----------------------|----------------------|
B |-----------------------|----------------------|
G |---------17-14---------|-----17-15-14---------|
D |---------------17-15-14|-----------17-15-14---|(ordem - a a b)
A |-----------------------|----------------------|
E |-----------------------|----------------------|

        a                        b                        c
E |-----------------------|------------------------|-------------------|
B |-----------------------|------------------------|-------------------|
G |----20-17--------------|----20-18-17------------|-------17----------|
D |----------20-18-17-----|-------------20-18-17---|-------------------| (ordem - b b a a c)
A |-----------------------|------------------------|-------------------|
E |-----------------------|------------------------|-------------------|

           a                    b
E |---13-13-12----------|----16-16-15-----------|
B |------------16-13-12-|-------------19-16-15--|
G |---------------------|-----------------------|(ordem - a(3x) b(3x) a(3x) b(3x) )
D |---------------------|-----------------------|
A |---------------------|-----------------------|
E |---------------------|-----------------------|

E |---------------------------------------------------------------------------------------|
B |--12p15p19h15h12-----------------------------------------------------------------------|
G |-----------------19h15h12p15p19h15h12--------------------------------------------15~~~\|
D |---------------------------------------19h15h12p15p19h15h12----------------------------|
A |------------------------------------------------------------19h15h12p15\---------------|
E |---------------------------------------------------------------------------------------|

E |--------19p12--------------|-------20p12-------------|-------20p12-------------|
B |-19p12--------19p12-19p12--|-19p12-------20p12-20p12-|-20p12-------20p12-20p12-|
g|*-------------------------*|-------------------------|-------------------------|
d|*-------------------------*|-------------------------|-------------------------|
A |---------------------------|-------------------------|-------------------------|
E |---------------------------|-------------------------|-------------------------|

E |------17p12------------|-------17p12------------|------15p12--------------|------|
b|20p12-------17p12-17p12|-17p12-------17p12-17p12|17p12-------17p12-17p12--|--15~-|
G |-----------------------|------------------------|*-----------------------*|------|
D |-----------------------|------------------------|*-----------------------*|------|
A |-----------------------|------------------------|-------------------------|------|
E |-----------------------|------------------------|-------------------------|------|

E |-\-19p12-------------|--------19p12-------------|-------20p12-------------|
B |---------19p12-19p12-|-19p12--------19p12-19p12-|-19p12-------20p12-20p12-|
g|*--------------------|--------------------------|-------------------------|
d|*--------------------|--------------------------|-------------------------|
A |---------------------|--------------------------|-------------------------|
E |---------------------|--------------------------|-------------------------|

E |------20p12------------|-------17p12------------|------17p12------------|--------|
b|20p12-------20p12-20p12|-20p12-------17p12-17p12|17p12-------17p12-17p12|--15~~\-|
G |-----------------------|------------------------|-----------------------|-------*|
D |-----------------------|------------------------|-----------------------|-------*|
A |-----------------------|------------------------|-----------------------|--------|
E |-----------------------|------------------------|-----------------------|--------|

E |-------------------------------------------------|
B |-------------------------------------------------|
G |-------12-16-15-12-------12----------12----12----|2x
D |-13-14-------------16-14----14-13-17----17-------|
A |-------------------------------------------------|
E |-------------------------------------------------|
                        T         T       T       T       T          T
E |-----------------7h8-------------------------------------------------------|
B |-------------6h8------11p6/8h11-13p11p8-13p8h10-13p10p8-15p9/11h13-15p13p11|
G |---------7h8---------------------------------------------------------------|
D |-----7h8-------------------------------------------------------------------|
A |-7h8-----------------------------------------------------------------------|
E |---------------------------------------------------------------------------|

E |-h10h11h13p11p10h11h13p11--\-|
B |-----------------------------|
G |-----------------------------|
D |-----------------------------|
A |-----------------------------|
E |-----------------------------|

E |-------------------------------------------------|
B |-------------------------------------------------|
G |-------12-16-15-12-------12----------12----12----|2x
D |-13-14-------------16-14----14-13-17----17-------|
A |-------------------------------------------------|
E |-------------------------------------------------|

                  T       T          T
E |----------------8h12p8-13p8/10h13-15p13p10-|
B |-----------8h10----------------------------|
G |------9h10---------------------------------|
D |-9h10--------------------------------------|
A |-------------------------------------------|
E |-------------------------------------------|

E |-13p12p10-----------------------------------------------------|
B |----------13p12p10-13p12p10-----------------------------------|
G |----------------------------12p10p9---------------------------|
D |------------------------------------12p10p9-10p9p7------------|
A |---------------------------------------------------10p8p7-\6/-|
E |--------------------------------------------------------------|

E |-------------------------------------------------|
B |-------------------------------------------------|
G |-------12-16-15-12-------12----------12----12----|
D |-13-14-------------16-14----14-13-17----17-------|
A |-------------------------------------------------|
E |-------------------------------------------------|
    a              b
E |--------------|-------------------|
B |--------------|-------------------|
G |-------12h14--|-------------12h14-|
D |-12-16--------|-16p12-12-16-------| (a b b)
A |--------------|-------------------|
E |--------------|-------------------|
      a             b
E |------------|---------------------|
B |------------|---------------------|
G |------11h12-|-------------11h12---| (a b b)
D |10-14-------|-14p10-10-14---------|
A |------------|---------------------|
E |------------|---------------------|

E |-----------|----------------|---------------|
B |-----------|----------------|---------------|
G |------9h11-|-----------9h11-|---------------|
D |-9-12------|-12p9-9-12------|-12-9----------|
A |-----------|----------------|------12-8-7\--|
E |-----------|----------------|---------------|

E |----------------------------------------------|
B |----------------------------------------------|
G |----------------------------------------------|
D |----------------------------------------------|
A |----------------------------------------------|
E |-0-0-0-0-0-3-0-0-0-0-0-5-0-0-7-0-0-5-0-0-3\---|

E |-------------------------------------------------|
B |-------------------------------------------------|
G |-------12-16-15-12-------12----------12----12----| (2x)
D |-13-14-------------16-14----14-13-17----17-------|
A |-------------------------------------------------|
E |-------------------------------------------------|

E |----------------------------------------------------------14-16-17-16-14|
B |-------------------------------------------13-16-------14---------------|
G |----------------------------13-16-------14-------13-15------------------|
D |----------11h12h14-------14-------13-15---------------------------------|
A |-11h12h14----------13-15------------------------------------------------|
E |------------------------------------------------------------------------|

E |------------------------------------------------------------|
B |17-15-14-15-17-15-14----------------------------------------|
G |---------------------16-14-13-14-16-14-13-------------------|
D |------------------------------------------16-14-13----------|
A |---------------------------------------------------16-14-13\|
E |------------------------------------------------------------|

E |-------------------------------------------------|
B |-------------------------------------------------|
G |-------12-16-15-12-------12----------12----12----|2x
D |-13-14-------------16-14----14-13-17----17-------|
A |-------------------------------------------------|
E |-------------------------------------------------|

E |-------------------------------------------13h18p13h17|
B |-------------------------------------13h17------------|
G |-------------------13h14-------13h14------------------|
D |-------------13h14-------13h14------------------------|
A |-------13h14------------------------------------------|
E |-13h14------------------------------------------------|
   T      T        T        T
E |-21p14-20p14h20-21p20p14-20p14h20p14-19p14----|
B |----------------------------------------------|
G |----------------------------------------------|
D |----------------------------------------------|
A |----------------------------------------------|
E |----------------------------------------------|

E |-------------------------------------------------|
B |-------------------------------------------------|
G |-------12-16-15-12-------12----------12----12----|
D |-13-14-------------16-14----14-13-17----17-------|
A |-------------------------------------------------|
E |-------------------------------------------------|
    a              b
E |--------------|-------------------|
B |--------------|-------------------|
G |-------12h14--|-------------12h14-|
D |-12-16--------|-16p12-12-16-------|(a b b)
A |--------------|-------------------|
E |--------------|-------------------|
      a             b
E |------------|---------------------|
B |------------|---------------------|
G |------11h12-|-------------11h12---| (a b b)
D |10-14-------|-14p10-10-14---------|
A |------------|---------------------|
E |------------|---------------------|

E |-----------|----------------|---------------|
B |-----------|----------------|---------------|
G |------9h11-|-----------9h11-|---------------|
D |-9-12------|-12p9-9-12------|-12-9----------|
A |-----------|----------------|------12-8-7\--|
E |-----------|----------------|---------------|

E |----------------------------------------------|
B |----------------------------------------------|
G |----------------------------------------------|
D |----------------------------------------------|
A |----------------------------------------------|
E |-0-0-0-0-0-3-0-0-0-0-0-5-0-0-7-0-0-5-0-0-3\---|

      a                b
E |----------------|------------------|
B |----------------|------------------|
G |-14-11----------|-14-12-11---------| (a a b)
D |-------14-12-11-|----------14-12-11|
A |----------------|------------------|
E |----------------|------------------|
       a                 b
E |----------------|------------------|
B |----------------|------------------|
G |17-14-----------|-17-15-14---------| (a a b)
D |------17-15-14--|----------17-15-14|
A |----------------|------------------|
E |----------------|------------------|

E |-----------------|---------------------|
B |-----------------|---------------------|
G |-20-17-----------|-20-18-17------------| (a a b)
D |-------20-18-17--|----------20-18-17---|
A |-----------------|---------------------|
E |-----------------|---------------------|

E |------------------------------------------------------------------------|
B |--12p15p19h15h12--------------------------------------------------------|
G |-----------------19h15h12p15p19h15h12-----------------------------------|
D |---------------------------------------19h15h12p15p19h15h12-------------|
A |------------------------------------------------------------19h15h12p15-|
E |------------------------------------------------------------------------|

           T.H    T.H     T.H   T.H       T.H
E |------------------------------------------------------|
B |-8~------20(8)--20(6)--20(8)--------------------------|
G |------------------------------20(7)/--\-20(7)---9b11--|
D |------------------------------------------------------|
A |------------------------------------------------------|
E |------------------------------------------------------|

E |---------------------------------------------|
B |--6-8-9---9b11-9~----11b13---11-9\/8\/6------|
G |---------------------------------------------|
D |---------------------------------------------|
A |---------------------------------------------|
E |---------------------------------------------|

E |-------------------------------|
B |-8---8-/9~-----7~------7/9-----|
G |-------------------------------|
D |-------------------------------|
A |-------------------------------|
E |-------------------------------|

 T.H    T.H     T.H   T.H       T.H
E |------------------------------------------------------|
B |-8~------20(8)--20(6)--20(8)--------------------------|
G |------------------------------20(7)/--\-20(7)---9b11--|
D |------------------------------------------------------|
A |------------------------------------------------------|
E |------------------------------------------------------|

E |---------------------------------------------|
B |--6-8-9---9b11-9~----11b13---11-9\/8\/6------|
G |---------------------------------------------|
D |---------------------------------------------|
A |---------------------------------------------|
E |---------------------------------------------|

E |-----------------------------------------|
B |-8--8--/9~---/13-12-----15b18-----15~----|
G |-----------------------------------------|
D |-----------------------------------------|
A |-----------------------------------------|
E |-----------------------------------------|

         a                   b
E |---------------0---|---------------0----|
B |------------4----4-|------------3----3--|
G |------------3------|------------4-------|:a,b,a
D |------------0------|------------0-------|
A |-3--3-3---3-3------|--3--3-3--3-3-------|
E |-------------------|--------------------|

E |-------|-------------------0----|-------------------0--------|
B |-4--3--|--------------7-------7-|------------------------0---|
G |-3--3--|--------------6---------|---------------0------------|
D |-3--3--|--------------4---------|---------------0------------|
A |-1--1--|--6-6---6---6-6---------|--6-6----6--6--6------------|
E |-------|------------------------|---------------7------------|

E |-----------------6------6--------|---------------|
B |-----------------6-----------6---|-----6~--------|
G |-----------------6---------------|-----5~--------|
D |-----------------6---------------|-----4~--------|
A |-----------------6---------------|-----5~--------|
E |-6-6----6----6---6---------------|---------------|

E |-------------------------------------------------|
B |-------------------------------------------------|
G |--------------------7h8h10-7h8h19/12---8\7-------|
D |-------------7h8h10------------------------------|
A |-8~---7h8h10-------------------------------------|
E |-------------------------------------------------|

E |---------------------|---------------------|
B |---------------------|-7h8h7---------------|
G |-8-10-10b-----/12-8~-|-------8-------------|
D |---------------------|---------------------|
A |---------------------|----------10-6\5~----|
E |---------------------|---------------------|

E |-------------------------------------------------|
B |-------------------------------------------------|
G |----------------6-----8------8-------11----------|
D |-----6---6h7--9---9-----10-----10-------13----13-|
A |-6-9---9------------8------9------9--------12----|
E |-------------------------------------------------|

E |-------------------11-13-11-13-11-|
B |----------11-12-14----------------|
G |-10-11-13-------------------------|
D |----------------------------------|
A |----------------------------------|
E |----------------------------------|

E |-------------------------------------------------------------|
B |-13-10-12-10-------10----------------------------------------|
G |-------------12-11----12-11-14-11-14-11---12/16-12-11-12-13~-|
D |-------------------------------------------------------------|
A |-------------------------------------------------------------|
E |-------------------------------------------------------------|
00:00 / 00:00
Otros videos de esta canción
Repetir
Otros videos de esta canción
Composición de Kiko Loureiro
Colaboración y revisión:
  • jean teixeira
104 vistas
    • ½ Tono
    • A
    • Bb
    • B
    • C
    • Db
    • D
    • Eb
    • E
    • F
    • F#
    • G
    • Ab
  • Agregar a la lista

    0 comentarios

    Ver todos los comentarios

    ¿Lograste tocar?

    3 Tocaron 0 Aún no

    ¡Graba un video tocando Enfermo y envíanoslo!

    00:00 / 00:00
    OK