Cifra Club

Feijão de Corda

Kiko Loureiro

Cifrado: Principal (guitarra y guitarra eléctrica)
tono: D
E|--------------------------------------------------------------|
B|-----------------------------------------------------0-----0--|
G|-----4-----4--------3-----3--------4-----4--------3-----3-----|
D|-----2-----2--------2-----2--------2-----2--------------------|
A|--4-----4-----4--4-----4-----4--4-----4-----4--4--------------|
E|--------------------------------------------------------------|

E|-----------------------------------------------------0-----0--|
B|--------------------------------------------------------0-----|
G|-----4-----4--------3-----3--------4-----4--------3-----------|
D|-----2-----2--------2-----2--------2-----2--------------------|
A|--4-----4-----4--4-----4-----4--4-----4-----4--4--------------|
E|--------------------------------------------------------------|

E|--------------------------------------------------------------|
B|-----------------------------------------------------0-----0--|
G|-----4-----4--------3-----3--------4-----4--------3-----3-----|
D|-----2-----2--------2-----2--------2-----2--------------------|
A|--4-----4-----4--4-----4-----4--4-----4-----4--4--------------|
E|--------------------------------------------------------------|

                                              H.P
E|--------------------------------------------------------------|
B|--------------------------------------------------------------|
G|-----4-----4--------3-----3-----------3--4--3--4--------------|
D|-----2-----2--------2-----2-----2--5--------------2-----------|
A|--4-----4-----4--4-----4-----4-----------------------4--4--4--|
E|--------------------------------------------------------------|

                                           H.P
E|--------------------------------------------------------------|
B|--------------------------------------------------------------|
G|-----------------------------------3--4--3--4--6--3-----------|
D|-----------------------------2--5-----------------------------|
A|--4--4--4--4--4--4--4--4--4--------------------------4--4--4--|
E|--------------------------------------------------------------|

00:00 / 00:00
Otros videos de esta canción
Repetir
Otros videos de esta canción
Composición de Kiko Loureiro
Colaboración y revisión:
  • Guilherme Luis
  • WELLINGTON ARAUJO
176 vistas
    • ½ Tono
    • A
    • Bb
    • B
    • C
    • Db
    • D
    • Eb
    • E
    • F
    • F#
    • G
    • Ab
  • Agregar a la lista

    0 comentarios

    Ver todos los comentarios

    ¿Lograste tocar?

    2 Tocaron 1 Aún no

    ¡Graba un video tocando Feijão de Corda y envíanoslo!

    00:00 / 00:00
    OK