Cifra Club

No Gravity

Kiko Loureiro

Cifrado: Principal (guitarra y guitarra eléctrica)
tono: E
E|------|-------------------------|------------------------|
B|------|-------12---10----9~-----|------------------------|
G|------|-----9----x--------------|------4--6h-6/-9h-9/-6~-|
D|------|-------------------------|------------------------|
A|------|-------------------------|------------------------|
E|------|-------------------------|------------------------|

-----------------------------|------------------|--------------------------12~-|
-----------5-------7/9h12p9~-|------------------|-------12---10h-10/-16--------|
--------6-------6------------|------------------|-----9----x-------------------|
-----------------------------|------------------|------------------------------|
-----------------------------|------------------|------------------------------|
-----------------------------|------------------|------------------------------|

------------------------|--------------------------|----------------------|
------------5-----7b-5~-|----------12p--10/9p7--7--|----9--10--9~---------|
--------4-6-----6-------|--------------------------|----------------------|
------------------------|--------------------------|----------------------|
------------------------|--------------------------|----------------------|
------------------------|--------------------------|----------------------|

-----------19--17----16~-----|----------------------------|
--------17-------------------|--------------17----19b-17~-|
-----18----------------------|--------16-18---------------|
-----------------------------|----------------------------|
-----------------------------|----------------------------|
-----------------------------|----------------------------|

------------17p16-----------------|-----------------------------|
------------------17----17h19/24--|----22h24p22-21~-------21/---|
---------16----------16-----------|-----------------------------|
----------------------------------|-----------------------------|
----------------------------------|-----------------------------|
----------------------------------|-----------------------------|

-----------19--17h-17/-23----24~-|----------------------------|
--------17-----------------------|--------------17----19b-17--|
-----18--------------------------|------16--18----------------|
---------------------------------|----------------------------|
---------------------------------|----------------------------|
---------------------------------|----------------------------|

---------------16-17p16-12-------------------|-----------------------------|
------------17-------------12----------------|-----------------------------|
---------18-------------------14-13h14p13h14p|--13--11-9-11r-9-11~---------|
---------------------------------------------|-----------------------------|
---------------------------------------------|-----------------------------|
---------------------------------------------|-----------------------------|

-----------16--------------------------------|-----------17---------------|
--------17----19h21p19-16-------------17~----|--19b--19b----19r-----19~---|
--16-18-------------------16-16h18h20--------|----------------------------|
---------------------------------------------|----------------------------|
---------------------------------------------|----------------------------|
---------------------------------------------|----------------------------|

-----------16-------------------------------------|
--------17----19h21p19-16-------------17~------17-|
--16-18-------------------16-16h18h20-------16----|
--------------------------------------------------|
--------------------------------------------------|
--------------------------------------------------|

--19p-17-16--17-----------------|-----------16--------------------------------|
----------------21----19--19~---|--------17----19h21p19-16-------------17~----|
--------------------------------|--16-18-------------------16-16h18h20--------|
--------------------------------|---------------------------------------------|
--------------------------------|---------------------------------------------|
--------------------------------|---------------------------------------------|

-----------17--------------------|--17r----15-14~---------------|
--19b---19b---19r-----19~-----17-|------------------------16----|
---------------------------16----|---------------------16----16-|
---------------------------------|------------------------------|
---------------------------------|------------------------------|
---------------------------------|------------------------------|

----------------------|-----------------------|------------------------|
--17------19~---------|------12--10----9~-----|------------------------|
----------------------|-----------------------|------4--6h-6/-9h-9/-6~-|
----------------------|-----------------------|------------------------|
----------------------|-----------------------|------------------------|
----------------------|-----------------------|------------------------|

----------------------|------------------|--------19----17----23~-----|
-----------5-------7~-|------------------|----------------------------|
--------6-------6-----|------------------|-----16----16---------------|
----------------------|------------------|----------------------------|
----------------------|------------------|----------------------------|
----------------------|------------------|----------------------------|

--------------------------|------------17-16-------12h14/19--|
------------17----19r-17~-|------------------17--------------|
--------18----------------|---------16----------16-----------|
--------------------------|----------------------------------|
--------------------------|----------------------------------|
--------------------------|----------------------------------|

----17h19p17-16~---------------|-----------16--------------------------------|
---------------------19--19----|--------17----19h21p19-16-------------17~----|
-------------------------------|--16-18-------------------16-16h18h20--------|
-------------------------------|---------------------------------------------|
-------------------------------|---------------------------------------------|
-------------------------------|---------------------------------------------|

-----------17-------------|-----------16----------------------------------|
--19b--19b----19~---------|--------17----19h21p19-16-------------17~------|
--------------------------|--16-18-------------------16-16h18h20-------16-|
--------------------------|-----------------------------------------------|
--------------------------|-----------------------------------------------|
--------------------------|-----------------------------------------------|

--19-------17-------16--------------|
------------------------------------|
-----16/14----14/13-13----18--11~---|
------------------------------------|
------------------------------------|
------------------------------------|

-----------16--------------------------------|
--------17----19h21p19-16-------------17~----|
--16-18-------------------16-16h18h20--------|
---------------------------------------------|
---------------------------------------------|
---------------------------------------------|

--14/16/14p12-14p12----------------------|--17r-----15-17~-----14p11----11-|
--------------------16p---15p14p12-12~---|---------------------------12----|
-----------------------------------------|---------------------------------|
-----------------------------------------|---------------------------------|
-----------------------------------------|---------------------------------|
-----------------------------------------|---------------------------------|

--12------12~-----------|--15p14-------------12p11----------------------------|
---------------------12-|--------15-12-------------12----12----12h16p12----12-|
------------------------|--------------14-12----------11----11----------11----|
------------------------|-----------------------------------------------------|
------------------------|-----------------------------------------------------|
------------------------|-----------------------------------------------------|

--12--------------------|-------------------------|----------------------|
-------12---------------|-------------------------|----------------------|
------------13----------|-------------------------|----------------------|
------------------------|------7-7-7h-7/-5--------|--4/-5/4-2------------|
------------------------|---------------------x-x-|----------------------|
------------------------|-------------------------|----------------------|

------------------------|-----------------------|
------------------------|--------------------10-|
------------------------|------------------9----|
-----x-7--7h-7/-9/-4----|--6~-------------------|
------------------------|-----------------------|
------------------------|-----------------------|

--12p--10p8p7h-8h10~-----------|---------------------------|
-------------------------------|--12p-10p9h--10h12~--------|
-----------------------------9-|---------------------------|
---------------------------9---|---------------------------|
-------------------------------|---------------------------|
-------------------------------|---------------------------|

----------------------------------------------|--------------------|
----------10/12-12/13-13/15-15/17-17/15-17/19-|--21~---------------|
-----9-12-------------------------------------|--------------------|
---9------------------------------------------|--------------------|
----------------------------------------------|--------------------|
----------------------------------------------|--------------------|

--12---12-12---12-12---12-12---12-|--12---12-12--12-12-12---12-12--12-12-|
----------------------------------|--------------------------------------|
----------------------------------|--------------------------------------|
----------------------------------|--------------------------------------|
----------------------------------|--------------------------------------|
----------------------------------|--------------------------------------|

---12-12--12--12-12-12---12--12-12--|
------------------------------------|
------------------------------------|
------------------------------------|
------------------------------------|
------------------------------------|

--12--12--12--12-12-12--12-12-14r-12-14----|--12--14b--------15r----12-|
----------------------------------------14-|-----------------0---------|
-------------------------------------------|---------------------------|
-------------------------------------------|---------------------------|
-------------------------------------------|---------------------------|
-------------------------------------------|---------------------------|

--15-12--12~--14b----17r----15-|--17-15-12-12~--14b---14p12----12-14----12-|
---------------------0---------|----------------------------14-------15----|
---------------------0---------|-------------------------------------------|
-------------------------------|-------------------------------------------|
-------------------------------|-------------------------------------------|
-------------------------------|-------------------------------------------|

---------------------------------7-8-|-----------------------------|
-------------------------------8-----|--12/-10-10/-12-8~--------10p|
--14-12----14-12r-14~--------9-------|-----------------------------|
--------14--------------12/7---------|-----------------------------|
-------------------------------------|-----------------------------|
-------------------------------------|-----------------------------|

---------------------------------------------------|
-----8p7p5-----------------------------------------|
-----------8p7-5p4h5h7p5p4---------------4h5-7~----|
---------------------------5h9t------2h5-----------|
-------------------------------2h3h5---------------|
---------------------------------------------------|

------------------------------------|------------------------------------|
---------13--12-------------13--12--|---------13--12-------------12------|
-----12--------------11--11---------|------12---------14--14--15------12-|
--14-------------13-----------------|---14-------------------------------|
------------------------------------|------------------------------------|
------------------------------------|------------------------------------|

--12------------------------------------------|--------------------------------|
------16--15--12----12h13p12----12------------|--------------------------------|
-----------------14----------14----11r-----11-|--9---7-9-2---------------------|
----------------------------------------14----|----9-------5-2-----2-5b2-----2-|
----------------------------------------------|------------------5-------2-5---|
----------------------------------------------|--------------------------------|

---------------------------------7-10-12-7-|--10-----12p7~--------------|
----------------------------8-10-----------|-------------------------12-|
----------------------5-7-9----------------|----------------------11----|
------------------5-7----------------------|----------------------------|
--3~------3-5/6/7--------------------------|----------------------------|
-------------------------------------------|----------------------------|

--14p--10--14h15p14p10-14p10h12h14t12p10p9h10p9h10p9-------------------7--------
-----------------------------------------------------10h14p10h12h15p12---10h15p1
--------------------------------------------------------------------------------
--------------------------------------------------------------------------------
--------------------------------------------------------------------------------
--------------------------------------------------------------------------------

--10p9-5h7h10p7p5------------------------------------------------------------|
------------------10p7p5-----------------------------------------------------|
-------------------------6h7h11p7p6p4h6p4------------------------------------|
-------------------------------------------6h7h12p7p6p4h6p4------------------|
------------------------------------------------------------7p5h7h9p7p5-4~---|
-----------------------------------------------------------------------------|

--------------------------------------------------|
--------------------------------------------------|
--------------------------------------------------|
--------4-----------4-5-4-----------4-5-7-5-4-----|
--3-5-7---7-5-3-5-7-------7-5-3-5-7-----------7-5-|
--------------------------------------------------|

--------------------------------------------------------|
--------------------------------------------------------|
------------------------------------------------------7-|
--------5-4---------5-----------5-7-5-----------5-7-9---|
--3-5-7-----7-5-7-9---9-7-5-7-9-------9-7-5-7-9---------|
--------------------------------------------------------|

--------------------------------------------------------------------------------
--------------------------------------------------------------------------------
--9-7---------7-9-7---------7-9-7----8-13-11----------11-13-11----------11-13-11
------11-9-11-------11-9-11-------11---------14-13-14----------14-13-14---------
--------------------------------------------------------------------------------
--------------------------------------------------------------------------------

-----------------------------------------------------------11-12-14-12-11-------
--12-11----------11-12-11----------11-12-11-------11-12-14----------------14-12-
--------13-11-13----------13-11-13----------13-11-------------------------------
--------------------------------------------------------------------------------
--------------------------------------------------------------------------------
--------------------------------------------------------------------------------

-----------16--------------------------------|-----------17----------------|
--------17----19h21p19-16-------------17~----|--19b--19b----19~-----19~----|
--16-18-------------------16-16h18h20--------|---------------------------4/|
---------------------------------------------|-----------------------------|
--14~----------------------------------------|-----------------------------|
---------------------------------------------|-----------------------------|

-----------16-------------------------------12/|
--------17----19h21p19-16-------------17~------|
--16-18-------------------16-16h18h20----------|
-----------------------------------------------|
-----------------------------------------------|
-----------------------------------------------|

--19-------17-------16--------------|
------------------------------------|
-----16/14----14/13-13----18--11~---|
------------------------------------|
------------------------------------|
------------------------------------|

-----------16----------------------------------|
--------17----19h21p19-16-------------17~------|
--16-18-------------------16-16h18h20-------16-|
-----------------------------------------------|
-----------------------------------------------|
-----------------------------------------------|

---------17-19-17-19r-----23~---|
--19b-21------------------------|
--------------------------------|
--------------------------------|
--------------------------------|
--------------------------------|

--24----23r-23~----23-21-19-------------------------|--------------------------|
----------------------------22-21-19----------------|--------------------------|
-------------------------------------21-20-18-------|--21------21~----------19-|
----------------------------------------------21-19-|--------------------------|
----------------------------------------------------|--------------------------|
----------------------------------------------------|--------------------------|

--19-15----15-10----10-15-10-14-11-------------------------7-9-7----------------
--------15-------12----------------12-10----------------10-------10-9-7---------
-----------------------------------------11-8------8-11-----------------9-8-6---
----------------------------------------------11-9----------------------------9-
--------------------------------------------------------------------------------
--------------------------------------------------------------------------------

--------------------|
--------------------|
--------------------|
--------------------|
--7------7r---------|
--------------------|

--------------------------------------------------------------------------------
--------------------------------------------------------------------------------
-----------------------------------------------11-------11-12----11-12-14-11-12-
-----------11-------11-12----11-12-14-11-12-14----12-14-------14----------------
--10-12-14----12-14-------14----------------------------------------------------
--------------------------------------------------------------------------------

----------------------|------------------||
----------------------|------------------||
--13~-----15~---------|------------------||
----------------------|------------------||
----------------------|------------------||
----------------------|------------------||

00:00 / 00:00
Otros videos de esta canción
Repetir
Otros videos de esta canción
Composición de Kiko Loureiro
Colaboración y revisión:
  • BRUNO CHIACA
  • Marcos Paulo
  • Luis Chiaradia
337 vistas
    • ½ Tono
    • A
    • Bb
    • B
    • C
    • Db
    • D
    • Eb
    • E
    • F
    • F#
    • G
    • Ab
  • Agregar a la lista

    0 comentarios

    Ver todos los comentarios

    ¿Lograste tocar?

    4 Tocaron 0 Aún no

    ¡Graba un video tocando No Gravity y envíanoslo!

    00:00 / 00:00
    OK