Cifra Club

Whispering

Kiko Loureiro

Cifrado: Principal (guitarra y guitarra eléctrica)
tono: Dm
Parte 1:
E|----------------------|---------------------|-------------|
B|----------------------|---------------------|-------------|
G|----------------------|---------------------|-------------|
D|--x--5/7--\5---5/9----|-x--5/7--\5---5/7\---|-5p4-5p4-----|
A|----------------------|---------------------|---------7p5-|
E|----------------------|---------------------|-------------|

E|-----------------------------|---------------------------|
B|-----------------------------|---------------------------|
G|-----------------------------|---------------------------|
D|-x--5/7--\5--5/9---10p9-7\5--|-----5h7/9--7/9--\7--7--5--|
A|-----------------------------|-2/7-----------------------|
E|-----------------------------|---------------------------|

E|---------------------------|
B|---------------------------|
G|------7---9---11b12r11--9--|
D|-7/9-----------------------|
A|---------------------------|
E|---------------------------|

Parte 2:
E|---------------------------------------------|
B|---------------------------------------------|
G|-------12-14-12h14p12\11-11--12/16--16~~~~\--|
D|-7/14----------------------------------------|
A|---------------------------------------------|
E|---------------------------------------------|

E|--------------------------------------------|
B|--------------------------------------------|
G|-------11-12-14-16--16b17r16--14-11b12r11~~-|
D|---/14--------------------------------------|
A|--------------------------------------------|
E|--------------------------------------------|

E|---------------------------------------------|
B|---------------------------------------------|
G|-------12-14-12h14p12\11-11--12/16--16~~~~\--|
D|--7/14---------------------------------------|
A|---------------------------------------------|
E|---------------------------------------------|

E|---------------------------------------|
B|---------------------15--17--20r19--17-|
G|-------11-12-14-16---------------------|
D|---/14---------------------------------|
A|---------------------------------------|
E|---------------------------------------|

Parte 3:
E|----------------------------------|
B|----------------------------------|
G|-15r14p12-14---12--x-x-x-14/16~~\-|
D|----------------------------------|
A|----------------------------------|
E|----------------------------------|

E|----------------------------------|
B|----------------------------------|
G|-15r14p12-14p12--12--14--12h14/20-|
D|---------------14------14---------|
A|----------------------------------|
E|----------------------------------|

E|-------------------------------------|
B|-12----------------------------------|
G|-----14--12--------------------------|
D|-------------14\12-9-----------------|
A|---------------------12-10h12--12-10-|
E|-------------------------------------|

E|-------------------------------------------|
B|-------------------------------------------|
G|-15r14p12-14---12-x-x-x-16---17r16--14--12-|
D|-------------------------------------------|
A|-------------------------------------------|
E|-------------------------------------------|

E|---------------------------------|
B|---------------------------------|
G|-------12h14/16----14---16----12-|
D|-12h14---------------------------|
A|---------------------------------|
E|---------------------------------|

E|-------------------------|
B|-----15--17-19b20r19--17-|
G|-16----------------------|
D|-------------------------|
A|-------------------------|
E|-------------------------|

Parte 4:
 P.M.--|
E|---15--17-15h17p15\14---15/19-19~~~~\--|
B|--17-----------------------------------|
G|-16------------------------------------|
D|---------------------------------------|
A|---------------------------------------|
E|---------------------------------------|

E|-----14--15--17--17---19b20r19--17---14b15r14~~~-|
B|-/17---------------------------------------------|
G|-------------------------------------------------|
D|-------------------------------------------------|
A|-------------------------------------------------|
E|-------------------------------------------------|

E|-18r17--15--17--15h17--15-|
B|--------------------------|
G|--------------------------|
D|--------------------------|
A|--------------------------|
E|--------------------------|

E|-20b21r20---19-18-17-15-17b18r17p15-17-15\-|
B|-------------------------------------------|
G|-------------------------------------------|
D|-------------------------------------------|
A|-------------------------------------------|
E|-------------------------------------------|

E|----------------------12----------------------------------------------------|
B|-----17--15b17r15b17----12-15----12-----------------------------------------|
G|------------------------------14----14-------------------14-12--------------|
D|-/14-----------------------------------15-14-12---------------14-12---------|
A|------------------------------------------------15-14-12-----------15-14-12-|
E|----------------------------------------------------------------------------|

Parte 5:
E|--------------------------------13--12-|
B|-------13p12------------12--15---------|
G|-12h14---------------12----------------|
D|------------------12-------------------|
A|------------14-------------------------|
E|---------------------------------------|

E|--------------------------------------------14-14~~-|
B|-16r15p13--15----13------16r15p13---15--------------|
G|--------------14------------------------14----------|
D|----------------------------------------------------|
A|----------------------------------------------------|
E|----------------------------------------------------|

            (Sweep Picking)
E|--------------------16-----18b20---------17-|
B|---------------17-19------------------------|
G|-------16-17-19-----------------------------|
D|-17-19--------------------------------------|
A|--------------------------------------------|
E|--------------------------------------------|
    ˄  ˅  ˄  ˅ (˄ ˄) ˄ ˅

Parte 6:
A|----------12----------------------------------------|
B|-------13----15-13-----15--15----17-----------------|
G|----12---------------------------------14b16---14~~-|
D|-14-------------------------------------------------|
A|----------------------------------------------------|
E|----------------------------------------------------|

A|----------12----------------------------------------------|
B|-------13----15-13---17b18r17-17---12----13b15----13~~~~--|
G|----12----------------------------------------------------|
D|-14-------------------------------------------------------|
A|----------------------------------------------------------|
E|----------------------------------------------------------|

A|----------12------------------------------------------|
B|-------13----15-13-----15--15----17-------------------|
G|----12---------------------------------14b16---14~~~~-|
D|-14---------------------------------------------------|
A|------------------------------------------------------|
E|------------------------------------------------------|

A|----------12-------------------------------------------------------------|
B|-------13----15-13---17b18r17-17---12----13b15r13b15---15b17r15---13~~~~-|
G|----12-------------------------------------------------------------------|
D|-14----------------------------------------------------------------------|
A|-------------------------------------------------------------------------|
E|-------------------------------------------------------------------------|

A|------------------------------------------------------------|
B|------13-----15b16r15p13-15----13------13----15----16----17-|
G|--/14----(14)---------------14------14----14----14----14----|
D|------------------------------------------------------------|
A|------------------------------------------------------------|
E|------------------------------------------------------------|

A|--------------------------------------------------|
B|-19b20-----17--16--15--13---15b17r15p13---15---13-|
G|--------------------------------------------------|
D|--------------------------------------------------|
A|--------------------------------------------------|
E|--------------------------------------------------|

A|-15b17r15----15-----12b13r12----12--------12~~~~~~-|
B|---------------------------------------------------|
G|---------------------------------------------------|
D|---------------------------------------------------|
A|---------------------------------------------------|
E|---------------------------------------------------|

E|---12b14r12--11---12--14--19~~--|
B|--------------------------------|
G|--------------------------------|
D|--------------------------------|
A|--------------------------------|
E|--------------------------------|


  PARTE 7

E|---------------------------------------|
B|---------------------------------------|
G|-11b13r11p9-11-----9------9------------|
D|---------------11-----11-------11--10--|
A|---------------------------------------|
E|---------------------------------------|

E|---------------------------------------------------|
B|---------------------------------------------------|
G|-11b13r11p9-11-----9------9---11--12--11b12----r11-|
D|---------------11-----11---------------------------|
A|---------------------------------------------------|
E|---------------------------------------------------|

E|----------------------------------------|
B|----------------------------------------|
G|--11----9----8---b9r8----6-------9----6-|
D|------------------------------9---------|
A|----------------------------------------|
E|----------------------------------------|

E|---------------------------------------|
B|-------------------x---x---9-----------|
G|-11b13r11p9-11-----x---x---9-----------|
D|---------------11--------------11--10--|
A|---------------------------------------|
E|---------------------------------------|

E|-------------------------------------------|
B|-------------------------------------------|
G|-11b13r11p9-11-----9------9---11--12--13---|
D|---------------11-----11-------------------|
A|-------------------------------------------|
E|-------------------------------------------|

E|------------------------------------------------------|
B|-----------------------------------12--14-------------|
G|--14--13-11b13---11~~~~--------11------------13---11\-|
D|--------------------------/13-------------------------|
A|------------------------------------------------------|
E|------------------------------------------------------|


   PARTE 8

E|------------------------------------------17p16-------|
B|--------10------9h10/14-----------14-------------17~~-|
G|------------------------------------------------------|
D|----11------11----------------14------14--------------|
A|-9------------------------12--------------------------|
E|------------------------------------------------------|

E|----------------------------------------------------------|
B|---------17-----17/19\16-16~~--------16------16b17r16p14--|
G|----------------------------------------------------------|
D|-----18-----18-------------------16------16---------------|
A|-16--------------------------14---------------------------|
E|----------------------------------------------------------|

E|------------------------------------------17p16-------|
B|--------10------9h10/14-----------14-------------17~~-|
G|------------------------------------------------------|
D|----11------11----------------14------14--------------|
A|-9------------------------12--------------------------|
E|------------------------------------------------------|

E|----------------------------------------------------------|
B|---------17-----17/19\16-16~~--------16------16b17r16p14--|
G|----------------------------------------------------------|
D|-----18-----18-------------------16------16---------------|
A|-16--------------------------14---------------------------|
E|----------------------------------------------------------|

E|-----------------------------------------------------|
B|--------10------9h10/14-----------14------16------17-|
G|-----------------------------------------------------|
D|----11------11----------------14------14------14-----|
A|-9------------------------12-------------------------|
E|-----------------------------------------------------|

E|---------------------------------------------------------|
B|---------17-----19-----21----------16------16p14---------|
G|--------------------------------------------------16--14-|
D|-----18-----18------18---------16------16----------------|
A|-16------------------------14----------------------------|
E|---------------------------------------------------------|

E|-------------------------------------------------------------|
B|-16b17r16p14----------16b17r16p14----------16-17-16-14-------|
G|--------------16--14---------------16--14--------------16-14-|
D|-------------------------------------------------------------|
A|-------------------------------------------------------------|
E|-------------------------------------------------------------|

E|-------------------------------------------------------------|
B|-16b17r16p14----------16b17r16p14----------16-17-16-14-------|
G|--------------16--14---------------16--14--------------16-14-|
D|-------------------------------------------------------------|
A|-------------------------------------------------------------|
E|-------------------------------------------------------------|

E|----------------------------------------------------------------------------|
B|-19-20-19-17-------19-20-19-17-------19-20-19-17----------------------------|
G|-------------19-17-------------19-17-------------19-17-16-------------------|
D|----------------------------------------------------------19-17-16----------|
A|-------------------------------------------------------------------19-17-15-|
E|----------------------------------------------------------------------------|

E|-------------------------------------12-14-15------------14-15-17----14-15-17---19~~--|
B|----------------------------12-13-15------------13-15-17------------------------------|
G|-------------------11-12-14-----------------------------------------------------------|
D|----------11-12-14--------------------------------------------------------------------|
A|-11-12-14-----------------------------------------------------------------------------|
E|--------------------------------------------------------------------------------------|


  PARTE 9

E|-15/17---15/17----15r14---------19~~~~~-|
B|----------------------------------------|
G|----------------------------------------|
D|----------------------------------------|
A|----------------------------------------|
E|----------------------------------------|

E|-18r17p15--17------17b18--15------------------14b15-|
B|---------------17--------------17------15--17-------|
G|-----------------------------------16---------------|
D|----------------------------------------------------|
A|----------------------------------------------------|
E|----------------------------------------------------|

E|-----------------------------------------------|
B|------17------15~~-----------------------------|
G|--16------16----------15r14p12--14------12-----|
D|------------------------------------14------14-|
A|-----------------------------------------------|
E|-----------------------------------------------|

A|------------------------------------------------------------------------------------|
B|-------------------------13/15----13p12---13p12-------------------------------------|
G|-12/14---12/14-----12-----------------------------------12h14/16--16~~----17--14~~--|
D|--------------------------------------------------12h14-----------------------------|
A|------------------------------------------------------------------------------------|
E|------------------------------------------------------------------------------------|

E|---------------------------------------------------------------------|
B|---------------------------------------------------------------------|
G|------11h12p11---------------------------------11h12h14p12p11--------|
D|--12------------12-------------------------14-------------------14~~-|
A|--------------------14--12--10--9--10--14----------------------------|
E|---------------------------------------------------------------------|

   PARTE 10 (Variação da PARTE 2 e PARTE 4)
E|---------------------------------------------|
B|---------------------------------------------|
G|-------12-14-12h14p12\11-11--12/16--16~~~~\--|
D|-7/14----------------------------------------|
A|---------------------------------------------|
E|---------------------------------------------|

 P.M.--|
E|---14--15--17--17~~---19b20r19--17~~---14b15r14~~~-|
B|--17-----------------------------------------------|
G|-16------------------------------------------------|
D|---------------------------------------------------|
A|---------------------------------------------------|
E|---------------------------------------------------|

E|-----15--17-15h17p15\14---15/19~~--21b22--20--19~~-|
B|-/17-----------------------------------------------|
G|---------------------------------------------------|
D|---------------------------------------------------|
A|---------------------------------------------------|
E|---------------------------------------------------|

E|--------------------------------------------12--------------------------------------------|
B|-12h13p12-----12--------------------------------15--12------------------------------------|
G|-----------14----14--x--14--12---------------------------14-----14--12--------------------|
D|--------------------------------14--x--x--x------------------x----------14--12------------|
A|-------------------------------------------------------------------------------15--14--12-|
E|------------------------------------------------------------------------------------------|


   PARTE 11 (Variação da PARTE 5)

E|---------------------------------13--12-|
B|-------13p12-------------12--15---------|
G|-12h14----------------12----------------|
D|-------------------12-------------------|
A|--------------14------------------------|
E|----------------------------------------|
                                    .    .
E|--------------------------------------------------14-14~~~~-|
B|-16r15p13------13---15b16r15--13----------------------------|
G|-----------14---------------------14------------------------|
D|--------------------------------------14--16--16------------|
A|------------------------------------------------------------|
E|------------------------------------------------------------|

E|-19-17-15------------------------------18b19------18b19---17b18~~~~-|
B|----------19-17-15-------------21~~~~-------------------------------|
G|-------------------18-16-14-----------------------------------------|
D|----------------------------19--------------------------------------|
A|--------------------------------------------------------------------|
E|--------------------------------------------------------------------|


   PARTE 12 (Variação da PARTE 6)

A|----------12----------------------------------------|
B|-------13----15-13-----15--15----17-----------------|
G|----12---------------------------------14b16---14~~-|
D|-14-------------------------------------------------|
A|----------------------------------------------------|
E|----------------------------------------------------|

A|----------12-----------------------------------------------|
B|-------13----15-13---17b18r17--17---12----13b15----13~~~~--|
G|----12-----------------------------------------------------|
D|-14--------------------------------------------------------|
A|-----------------------------------------------------------|
E|-----------------------------------------------------------|

A|----------12------------------------------------------|
B|-------13----15-13-----15--15----17-------------------|
G|----12---------------------------------14b16---14~~~~-|
D|-14---------------------------------------------------|
A|------------------------------------------------------|
E|------------------------------------------------------|

A|----------12----------------------------------------------------------------|
B|-------13----15-13---17b18r17-17---12----13/15--15~~~~-----17--13--13/15~~--|
G|----12----------------------------------------------------------------------|
D|-14-------------------------------------------------------------------------|
A|----------------------------------------------------------------------------|
E|----------------------------------------------------------------------------|

E|----------------------------------------------------------------------------|
B|--(15)---13h15/17--13h15---13------13--15/20--20------19--17--15--15/17~~~~-|
G|-------------------------------14-------------------------------------------|
D|----------------------------------------------------------------------------|
A|----------------------------------------------------------------------------|
E|----------------------------------------------------------------------------|

E|---------------------------------------------------------------18b19~~~~--|
B|-20b22--20~~---17b18--17~~-----17~~~~----17b19r17--16---------------------|
G|-------------------------------------------------------16--14-------------|
D|--------------------------------------------------------------------------|
A|--------------------------------------------------------------------------|
E|--------------------------------------------------------------------------|


  PARTE 13 (FINAL)

E|---------------------------------|
B|---------------------------------|
G|-12--9-----7---------------------|
D|--------------7--------7h9-------|
A|-------------------10----------7-|
E|---------------------------------|

E|---------------------------------------------------------------|
B|---------------------------------------------------------------|
G|-----12---14/16---12h14------12~~------------------------------|
D|-12----------------------------------------12--11--10----(9)~~-|
A|---------------------------------------------------------------|
E|---------------------------------------------------------------|

E|------------------------------------------------------------------------|
B|------------------------------------15------15--14--13------13-------12-|
G|-------12---14/16---12h14------12----------------------(12)-----(12)----|
D|--/12-------------------------------------------------------------------|
A|------------------------------------------------------------------------|
E|------------------------------------------------------------------------|

E|---------------------------------------------------------------------|
B|---------------------------------------------------------------------|
G|-------12---14/16---12h14~~----/19-----------------------------------|
D|--/12--------------------------------------14----12--11--10----(9)~~-|
A|---------------------------------------------------------------------|
E|---------------------------------------------------------------------|

E|------------------------------------------------------|
B|-------------------------------------12---------------|
G|--------------12--/14---14-----(10)------11-----------|
D|------12/14----------------------------------11---13--|
A|-14---------------------------------------------------|
E|------------------------------------------------------|

E|--------------------|
B|--------------------|
G|-----16-----12------|
D|-14--------------14-|
A|--------------------|
E|--------------------|

E|----------------------------|
B|-------13---12--------------|
G|----------------14----------|
D|----14--------------14---13-|
A|-12-------------------------|
E|----------------------------|

E|-----------------------------|
B|-------13---12---------12~~--|
G|----------------14-----------|
D|----14--------------14-------|
A|-12--------------------------|
E|-----------------------------|

E|-----------------------------------------------------------------------|
B|-------17--16h17--19--17--20~~---19--17-h19---17h19----------17--17~~--|
G|----16-----------------------------------------------16--16------------|
D|-14--------------------------------------------------------------------|
A|-----------------------------------------------------------------------|
E|-----------------------------------------------------------------------|

E|--------------------------|
B|-15--15--13----------12~~-|
G|-------------14-----------|
D|-----------------14-------|
A|--------------------------|
E|--------------------------|

E|--------------------------------------------------------|
B|--------------------------------------------------------|
G|--12----14p12p11----------11---------------------14--12-|
D|------------------14--13------14--11--13-----13---------|
A|--------------------------------------------------------|
E|------------------------------------------15------------|

E|--------------------------------------------------------------------|
B|------------------------------------------13------15-----16------17-|
G|------------------12------14------16--------------------------------|
D|-14--13--16--(14)----(14)----(14)----(14)----(14)----(14)----(14)---|
A|--------------------------------------------------------------------|
E|--------------------------------------------------------------------|

E|---------------------------------------------------------------------------------|
B|-12------------------------------------------------------------------------------|
G|----x-x--14--12---------12-------9--7--------------------------------------------|
D|----x-x---------14--12--------7--------9--7---7p5-----5--5----------------5b6r5--|
A|--------------------------------------------------7---------7---5---7------------|
E|---------------------------------------------------------------------------------|

E|----------------------------------------------|
B|----------------------------------------------|
G|----------------9--11--12--11-----9--------8--|
D|-------------9-----------------9-----9h10-----|
A|-(7)---9h10-----------------------------------|
E|----------------------------------------------|

E|---------------------------------------------12-|
B|------------------------------------------------|
G|------9-11h12-----11---9----12b14--x--14b16-----|
D|-7/9-----------9--------------------------------|
A|------------------------------------------------|
E|------------------------------------------------|

E|------------------14--------------15--------------18b19--|
B|-15b17~~--17--15-------17--15----------17--15------------|
G|-------------------------------16--------------16--------|
D|---------------------------------------------------------|
A|---------------------------------------------------------|
E|---------------------------------------------------------|

E|-17--15--17--19--15h17---15-|
B|----------------------------|
G|----------------------------|
D|----------------------------|
A|----------------------------|
E|----------------------------|

E|-------------------------------------------------------------------------|
B|-17b19---17-15----------15-----------------------------------------------|
G|---------------16-14---------16-14----------14---------------------------|
D|---------------------17------------17-14---------17-14-------------------|
A|-----------------------------------------17------------17-14--10--b12r10-|
E|-------------------------------------------------------------------------|

E|----------------------------------------------------------------------------|
B|----------------------------------------------------------------------------|
G|-12--14-14p12--14--12-14/16---(14)-16--17--16--14---------------------------|
D|---------------------------------------------------14---17--16---12---------|
A|---------------------------------------------------------------------14--12-|
E|----------------------------------------------------------------------------|

      Sweep Picking
E|---------------------------------------------------------------------|
B|------7-10-8---7---------7-10-8~~--------9-12-10---------11-14-12~~--|
G|-----7------------------7---------------9---------------11-----------|
D|----9------------------9--------------11---------------13------------|
A|-10-----------------10-------------12---------------14---------------|
E|---------------------------------------------------------------------|

E|----------------------------------------------|
B|----------------17-------17--16--------16--15-|
G|------------16------(16)----------(16)--------|
D|-12/14--17------------------------------------|
A|----------------------------------------------|
E|----------------------------------------------|

E|------------------------------------------------|
B|------15--14--------14--13----------------------|
G|-(16)----------(16)----------14-----------------|
D|----------------------------------14---14---13--|
A|------------------------------------------------|
E|------------------------------------------------|

E|------------------------------------12~~-------------14------------15-|
B|-------17-16-12h13p12-------------------------------------------------|
G|----16----------------14---12p11h12---------14p13h14------16p115h16---|
D|-14-------------------------------------------------------------------|
A|----------------------------------------------------------------------|
E|----------------------------------------------------------------------|

E|------------------------------------------------|
B|-8--------8--8--------8--8--------8--8--------8-|
G|-------7-----------7-----------7-----------7----|
D|----5-----------5-----------5-----------5-------|
A|------------------------------------------------|
E|------------------------------------------------|

E|-----------------------------------------------|
B|-10--------10---------12---------12---------12-|
G|--------9----------9----------11---------11----|
D|-----7----------7----------10---------10-------|
A|-----------------------------------------------|
E|-----------------------------------------------|

E|-----------------------------------------10---9-|
B|-12-------12--12--------12--12--------12--------|
G|-------11------------11------------11-----------|
D|----10------------10------------10--------------|
A|------------------------------------------------|
E|------------------------------------------------|

E|-------------------------------------------------14--12-|
B|-13--------13--------16--------16--16--------16---------|
G|--------12--------12--------15------------15------------|
D|-----10--------10--------13------------13---------------|
A|--------------------------------------------------------|
E|--------------------------------------------------------|

E|-----12---14--12---------14--14--12---------------14--14-11----------|
B|-(12)---------------(12)-------------14------(12)------------12------|
G|-----------------------------------------14---------------------11~~-|
D|---------------------------------------------------------------------|
A|---------------------------------------------------------------------|
E|---------------------------------------------------------------------|

  Abaixando o volume
E|------------------------------------------------|
B|-8--------8--8--------8--8--------8--8--------8-|
G|-------7-----------7-----------7-----------7----|
D|----5-----------5-----------5-----------5-------|
A|------------------------------------------------|
E|------------------------------------------------|

E|----------------------------------------------------|
B|-10--------10--10--------10--7--------7--7--------7-|
G|--------9-------------9------------9-----------9----|
D|-----7-------------7------------7-----------7-------|
A|----------------------------------------------------|
E|----------------------------------------------------|

E|------------------------------------------------|
B|-8--------8--8--------8--8--------8--8--------8-|
G|-------7-----------7-----------7-----------7----|
D|----5-----------5-----------5-----------5-------|
A|------------------------------------------------|
E|------------------------------------------------|

E|----------------------------------------------------|
B|-10--------10--10--------10--7--------7--7--------7-|
G|--------9-------------9------------9-----------9----|
D|-----7-------------7------------7-----------7-------|
A|----------------------------------------------------|
E|----------------------------------------------------|
00:00 / 00:00
Otros videos de esta canción
Repetir
Otros videos de esta canción
Composición de Kiko Loureiro
Colaboración y revisión:
  • Renan Santos
397 vistas
    • ½ Tono
    • Am
    • Bbm
    • Bm
    • Cm
    • C#m
    • Dm
    • Ebm
    • Em
    • Fm
    • F#m
    • Gm
    • G#m
  • Agregar a la lista

    0 comentarios

    Ver todos los comentarios

    ¿Lograste tocar?

    1 Tocaron 0 Aún no

    ¡Graba un video tocando Whispering y envíanoslo!

    00:00 / 00:00
    OK