Cifra Club

10 More Minutes With You

Kill Hannah

Cifrado: Principal (guitarra y guitarra eléctrica)
tono: F
INTRO: (Guitar One courtesy of Unregistered Intro Tab)

Guitar One:
e|-15----15----15----17----17----17-----13----13----13----15----15----15---|
B)---13----13----13----15----15----15-----15----15----15----15----15----15-|
G)-----12----12----------14----14-----------14----14----------14----14-----|
D)-------------------------------------------------------------------------|
A)-------------------------------------------------------------------------|
E)-------------------------------------------------------------------------|

Guitar One:
e--15----15----15----17----17----17---13----13----13----|
B----15----15----15----15----15----15---13----13----13--|
G------14----14----------14----14---------12----12------|
D-------------------------------------------------------|
A-------------------------------------------------------|
E-------------------------------------------------------|

Guitar Two
e|-------------------------------------------------------------------------|
B|-------------------------------------------------------------------------|
G|---------------7-7-7-77-77-7-3-3-3-33-33-3-3/5-5-5-3/55-5-5--------------|
D|-5-5-5-55-55-5-7-7-7-77-77-7-3-3-3-33-33-3-3/5-5-5-3/55-5-5--------------|
A|-5-5-5-55-55-5-5-5-5-55-55-5-1-1-1-11-11-1-1/3-3-3-1/33-3-3--------------|
E|-3-3-3-33-33-3-----------------------------------------------------------|

Guitar One
e)--15----15----15----17----17----17----13----13---13----|
B)----15----15----15----15----15----15----13----13---13--|
G)------14----14----------14----14----------12----12-----|
D)-------------------------------------------------------|
A)-------------------------------------------------------|
E)-------------------------------------------------------|

Guitar Two
e|-------------------------------------------------------------------------|
B|-------------------------------------------------------------------------|
G|---------------7-7-7-77-77-7---------------10\9-9\7-7\5-5/7-7------------|
D|-5-5-5-55-55-5-7-7-7-77-77-7-3-3-3-33-33-3--x\x-x\x-x\x-x/x-x------------|
A|-5-5-5-55-55-5-5-5-5-55-55-5-3-3-3-33-33-3--8\7-7\5-5\3-3/5-5~-----------|
E|-3-3-3-33-33-3---------------1-1-1-11-11-1-------------------------------|

VERSE:

Guitar One
e|-------------------------------------------------------------------------|
B|----------------5h6p5h6p5h6p5h6p5h6p5h6p5h6p5h6p5h6---------------------|
G|---------------------------------------------------------5-5-5h7~--------|
D|-------------------------------------------------------------------------|
A|-------------------------------------------------------------------------|
E|-------------------------------------------------------------------------|

Guitar Two
e|-------------------------------------------------------------------------|
B|-------------------------------------------------------------------------|
G|-7-7-7-7-7-7-7-7-5-5-5-5-5-5-5-5-----------------------------------------|
D|-7-7-7-7-7-7-7-7-5-5-5-5-5-5-5-5-5-5-5-5-5-5-5-5-5-5-5-5-5-5-5-5---------|
A|-5-5-5-5-5-5-5-5-3-3-3-3-3-3-3-3-5-5-5-5-5-5-5-5-5-5-5-5-5-5-5-5---------|
E|---------------------------------3-3-3-3-3-3-3-3-3-3-3-3-3-3-3-3---------|
PM.. . . . . . . . . . . . . . . . . . . . . . . . . . . . . . . .

Guitar One
e|-------------------------------------------------------------------------|
B|----------------5h6p5h6p5h6p5h6p5h6p5h6p5h6p5h6p5h6----------------------|
G|-------------------------------------------------------------------------|
D|---------------------------------------------------------5-5-5h7~--------|
A|-------------------------------------------------------------------------|
E|-------------------------------------------------------------------------|

Guitar Two
e|-------------------------------------------------------------------------|
B|-------------------------------------------------------------------------|
G|-7-7-7-7-7-7-7-7-5-5-5-5-5-5-5-5-----------------------------------------|
D|-7-7-7-7-7-7-7-7-5-5-5-5-5-5-5-5-5-5-5-5-5-5-5-5-5-5-5-5-5-5-5-5---------|
A|-5-5-5-5-5-5-5-5-3-3-3-3-3-3-3-3-5-5-5-5-5-5-5-5-5-5-5-5-5-5-5-5---------|
E|---------------------------------3-3-3-3-3-3-3-3-3-3-3-3-3-3-3-3---------|
PM.. . . . . . . . . . . . . . . . . . . . . . . . . . . . . . . .

Guitar One
e|-------------------------------------------------------------------------|
B|----------------5h6p5h6p5h6p5h6p5h6p5h6p5h6p5h6p5h6----------------------|
G|-------------------------------------------------------------------------|
D|-------------------------------------------------------------------------|
A|-------------------------------------------------------------------------|
E|-------------------------------------------------------------------------|

Guitar Two
e|-------------------------------------------------------------------------|
B|-------------------------------------------------------------------------|
G|-7-7-7-7-7-7-7-7-5-5-5-5-5-5-5-5-----------------------------------------|
D|-7-7-7-7-7-7-7-7-5-5-5-5-5-5-5-5-5-5-5-5-5-5-5-5-5-5-5-5-5-5-5-5---------|
A|-5-5-5-5-5-5-5-5-3-3-3-3-3-3-3-3-5-5-5-5-5-5-5-5-5-5-5-5-5-5-5-5---------|
E|---------------------------------3-3-3-3-3-3-3-3-3-3-3-3-3-3-3-3---------|
PM.. . . . . . . . . . . . . . . . . . . . . . . . . . . . . . . .

PRE-CHORUS:

Guitar One
e|-------------------------------------------------------------------------|
B|-------------------------------------8-8-8-8-8-8-8-8---------------------|
G|------------------10\7-7\5-5/7-7~----x-x-x-x-x-x-x-x---------------------|
D|-------------------x\x-x\x-x/x-x~----5-5-5-5-5-5-5-5---------------------|
A|-------------------8\5-5\3-3/5-5~----------------------------------------|
E|-------------------------------------------------------------------------|

Guitar Two
e|-------------------------------------------------------------------------|
B|-------------------------------------------------------------------------|
G|-3-3-3-3-3-3-3-3-3-3-3-3-3-3-3-3-3-5-5-5-5-5-5-5-5-5---------------------|
D|-3-3-3-3-3-3-3-3-3-3-3-3-3-3-3-3-3-5-5-5-5-5-5-5-5-5---------------------|
A|-1-1-1-1-1-1-1-1-1-1-1-1-1-1-1-1-1-3-3-3-3-3-3-3-3-3---------------------|
E|-------------------------------------------------------------------------|
PM.. . . . . . . . . . . . . . . . . . . . . . . . . .

CHORUS:
Guitar One:
e|-15----15----15----17----17----17-----13----13----13----15----15----15---|
B)---13----13----13----15----15----15-----15----15----15----15----15----15-|
G)-----12----12----------14----14-----------14----14----------14----14-----|
D)-------------------------------------------------------------------------|
A)-------------------------------------------------------------------------|
E)-------------------------------------------------------------------------|

Guitar Two
e|-------------------------------------------------------------------------|
B|-------------------------------------------------------------------------|
G|---------------7-7-7-77-77-7-3-3-3-33-33-3-3/5-5-5-3/55-5-5--------------|
D|-5-5-5-55-55-5-7-7-7-77-77-7-3-3-3-33-33-3-3/5-5-5-3/55-5-5--------------|
A|-5-5-5-55-55-5-5-5-5-55-55-5-1-1-1-11-11-1-1/3-3-3-1/33-3-3--------------|
E|-3-3-3-33-33-3-----------------------------------------------------------|

Guitar One:
e--15----15----15----17----17----17---13----13----13----|
B----15----15----15----15----15----15---13----13----13--|
G------14----14----------14----14---------12----12------|
D-------------------------------------------------------|
A-------------------------------------------------------|
E-------------------------------------------------------|

Guitar Two
e|-------------------------------------------------------------------------|
B|-------------------------------------------------------------------------|
G|---------------7-7-7-77-77-7---------------3/5-5-5-3/55-5-5--------------|
D|-5-5-5-55-55-5-7-7-7-77-77-7-3-3-3-33-33-3-3/5-5-5-3/55-5-5--------------|
A|-5-5-5-55-55-5-5-5-5-55-55-5-3-3-3-33-33-3-1/3-3-3-1/33-3-3--------------|
E|-3-3-3-33-33-3---------------1-1-1-11-11-1-------------------------------|

Guitar One
e)--15----15----15----17----17----17----13----13---13----|
B)----15----15----15----15----15----15----13----13---13--|
G)------14----14----------14----14----------12----12-----|
D)-------------------------------------------------------|
A)-------------------------------------------------------|
E)-------------------------------------------------------|

Guitar Two
e|-------------------------------------------------------------------------|
B|-------------------------------------------------------------------------|
G|---------------7-7-7-77-77-7---------------10\9-9\7-7\5-5/7-7------------|
D|-5-5-5-55-55-5-7-7-7-77-77-7-3-3-3-33-33-3--x\x-x\x-x\x-x/x-x------------|
A|-5-5-5-55-55-5-5-5-5-55-55-5-3-3-3-33-33-3--8\7-7\5-5\3-3/5-5~-----------|
E|-3-3-3-33-33-3---------------1-1-1-11-11-1-------------------------------|

VERSE:
Guitar One
e|-------------------------------------------------------------------------|
B|----------------5h6p5h6p5h6p5h6p5h6p5h6p5h6p5h6p5h6---------------------|
G|---------------------------------------------------------5-5-5h7~--------|
D|-------------------------------------------------------------------------|
A|-------------------------------------------------------------------------|
E|-------------------------------------------------------------------------|

Guitar Two
e|-------------------------------------------------------------------------|
B|-------------------------------------------------------------------------|
G|-7-7-7-7-7-7-7-7-5-5-5-5-5-5-5-5-----------------------------------------|
D|-7-7-7-7-7-7-7-7-5-5-5-5-5-5-5-5-5-5-5-5-5-5-5-5-5-5-5-5-5-5-5-5---------|
A|-5-5-5-5-5-5-5-5-3-3-3-3-3-3-3-3-5-5-5-5-5-5-5-5-5-5-5-5-5-5-5-5---------|
E|---------------------------------3-3-3-3-3-3-3-3-3-3-3-3-3-3-3-3---------|
PM.. . . . . . . . . . . . . . . . . . . . . . . . . . . . . . . .

Guitar One
e|-------------------------------------------------------------------------|
B|----------------5h6p5h6p5h6p5h6p5h6p5h6p5h6p5h6p5h6----------------------|
G|-------------------------------------------------------------------------|
D|---------------------------------------------------------5-5-5h7~--------|
A|-------------------------------------------------------------------------|
E|-------------------------------------------------------------------------|

Guitar Two
e|-------------------------------------------------------------------------|
B|-------------------------------------------------------------------------|
G|-7-7-7-7-7-7-7-7-5-5-5-5-5-5-5-5-----------------------------------------|
D|-7-7-7-7-7-7-7-7-5-5-5-5-5-5-5-5-5-5-5-5-5-5-5-5-5-5-5-5-5-5-5-5---------|
A|-5-5-5-5-5-5-5-5-3-3-3-3-3-3-3-3-5-5-5-5-5-5-5-5-5-5-5-5-5-5-5-5---------|
E|---------------------------------3-3-3-3-3-3-3-3-3-3-3-3-3-3-3-3---------|
PM.. . . . . . . . . . . . . . . . . . . . . . . . . . . . . . . .

Guitar One
e|-------------------------------------------------------------------------|
B|----------------5h6p5h6p5h6p5h6p5h6p5h6p5h6p5h6p5h6----------------------|
G|-------------------------------------------------------------------------|
D|-------------------------------------------------------------------------|
A|-------------------------------------------------------------------------|
E|-------------------------------------------------------------------------|

Guitar Two
e|-------------------------------------------------------------------------|
B|-------------------------------------------------------------------------|
G|-7-7-7-7-7-7-7-7-5-5-5-5-5-5-5-5-----------------------------------------|
D|-7-7-7-7-7-7-7-7-5-5-5-5-5-5-5-5-5-5-5-5-5-5-5-5-5-5-5-5-5-5-5-5---------|
A|-5-5-5-5-5-5-5-5-3-3-3-3-3-3-3-3-5-5-5-5-5-5-5-5-5-5-5-5-5-5-5-5---------|
E|---------------------------------3-3-3-3-3-3-3-3-3-3-3-3-3-3-3-3---------|
PM.. . . . . . . . . . . . . . . . . . . . . . . . . . . . . . . .

PRE-CHORUS:

Guitar One
e|-------------------------------------------------------------------------|
B|-------------------------------------8-8-8-8-8-8-8-8---------------------|
G|------------------10\7-7\5-5/7-7~----x-x-x-x-x-x-x-x---------------------|
D|-------------------x\x-x\x-x/x-x~----5-5-5-5-5-5-5-5---------------------|
A|-------------------8\5-5\3-3/5-5~----------------------------------------|
E|-------------------------------------------------------------------------|

Guitar Two
e|-------------------------------------------------------------------------|
B|-------------------------------------------------------------------------|
G|-3-3-3-3-3-3-3-3-3-3-3-3-3-3-3-3-3-5-5-5-5-5-5-5-5-5---------------------|
D|-3-3-3-3-3-3-3-3-3-3-3-3-3-3-3-3-3-5-5-5-5-5-5-5-5-5---------------------|
A|-1-1-1-1-1-1-1-1-1-1-1-1-1-1-1-1-1-3-3-3-3-3-3-3-3-3---------------------|
E|-------------------------------------------------------------------------|
PM.. . . . . . . . . . . . . . . . . . . . . . . . . .

CHORUS:
Guitar One:
e|-15----15----15----17----17----17-----13----13----13----15----15----15---|
B)---13----13----13----15----15----15-----15----15----15----15----15----15-|
G)-----12----12----------14----14-----------14----14----------14----14-----|
D)-------------------------------------------------------------------------|
A)-------------------------------------------------------------------------|
E)-------------------------------------------------------------------------|

Guitar Two
e|-------------------------------------------------------------------------|
B|-------------------------------------------------------------------------|
G|---------------7-7-7-77-77-7-3-3-3-33-33-3-3/5-5-5-3/55-5-5--------------|
D|-5-5-5-55-55-5-7-7-7-77-77-7-3-3-3-33-33-3-3/5-5-5-3/55-5-5--------------|
A|-5-5-5-55-55-5-5-5-5-55-55-5-1-1-1-11-11-1-1/3-3-3-1/33-3-3--------------|
E|-3-3-3-33-33-3-----------------------------------------------------------|

Guitar One:
e--15----15----15----17----17----17---13----13----13----|
B----15----15----15----15----15----15---13----13----13--|
G------14----14----------14----14---------12----12------|
D-------------------------------------------------------|
A-------------------------------------------------------|
E-------------------------------------------------------|

Guitar Two
e|-------------------------------------------------------------------------|
B|-------------------------------------------------------------------------|
G|---------------7-7-7-77-77-7---------------3/5-5-5-3/55-5-5--------------|
D|-5-5-5-55-55-5-7-7-7-77-77-7-3-3-3-33-33-3-3/5-5-5-3/55-5-5--------------|
A|-5-5-5-55-55-5-5-5-5-55-55-5-3-3-3-33-33-3-1/3-3-3-1/33-3-3--------------|
E|-3-3-3-33-33-3---------------1-1-1-11-11-1-------------------------------|

Guitar One
e)--15----15----15----17----17----17----13----13---13----|
B)----15----15----15----15----15----15----13----13---13--|
G)------14----14----------14----14----------12----12-----|
D)-------------------------------------------------------|
A)-------------------------------------------------------|
E)-------------------------------------------------------|

Guitar Two
e|-------------------------------------------------------------------------|
B|-------------------------------------------------------------------------|
G|---------------7-7-7-77-77-7---------------3/5-5-5-3/55-5-5--------------|
D|-5-5-5-55-55-5-7-7-7-77-77-7-3-3-3-33-33-3-3/5-5-5-3/55-5-5--------------|
A|-5-5-5-55-55-5-5-5-5-55-55-5-3-3-3-33-33-3-1/3-3-3-1/33-3-3--------------|
E|-3-3-3-33-33-3---------------1-1-1-11-11-1-------------------------------|

BASS INTERLUDE

CHORUS:
Guitar One:
e|-15----15----15----17----17----17-----13----13----13----15----15----15---|
B)---13----13----13----15----15----15-----15----15----15----15----15----15-|
G)-----12----12----------14----14-----------14----14----------14----14-----|
D)-------------------------------------------------------------------------|
A)-------------------------------------------------------------------------|
E)-------------------------------------------------------------------------|

Guitar Two
e|-------------------------------------------------------------------------|
B|-------------------------------------------------------------------------|
G|---------------7-7-7-77-77-7-3-3-3-33-33-3-3/5-5-5-3/55-5-5--------------|
D|-5-5-5-55-55-5-7-7-7-77-77-7-3-3-3-33-33-3-3/5-5-5-3/55-5-5--------------|
A|-5-5-5-55-55-5-5-5-5-55-55-5-1-1-1-11-11-1-1/3-3-3-1/33-3-3--------------|
E|-3-3-3-33-33-3-----------------------------------------------------------|

Guitar One:
e--15----15----15----17----17----17---13----13----13----|
B----15----15----15----15----15----15---13----13----13--|
G------14----14----------14----14---------12----12------|
D-------------------------------------------------------|
A-------------------------------------------------------|
E-------------------------------------------------------|

Guitar Two
e|-------------------------------------------------------------------------|
B|-------------------------------------------------------------------------|
G|---------------7-7-7-77-77-7---------------3/5-5-5-3/55-5-5--------------|
D|-5-5-5-55-55-5-7-7-7-77-77-7-3-3-3-33-33-3-3/5-5-5-3/55-5-5--------------|
A|-5-5-5-55-55-5-5-5-5-55-55-5-3-3-3-33-33-3-1/3-3-3-1/33-3-3--------------|
E|-3-3-3-33-33-3---------------1-1-1-11-11-1-------------------------------|

Guitar One
e)--15----15----15----17----17----17----13----13---13----|
B)----15----15----15----15----15----15----13----13---13--|
G)------14----14----------14----14----------12----12-----|
D)-------------------------------------------------------|
A)-------------------------------------------------------|
E)-------------------------------------------------------|

Guitar Two
e|-------------------------------------------------------------------------|
B|-------------------------------------------------------------------------|
G|---------------7-7-7-77-77-7---------------3/5-5-5-5-5-5-5---------------|
D|-5-5-5-55-55-5-7-7-7-77-77-7-3-3-3-33-33-3-3/5-5-5-5-5-5-5-5~------------|
A|-5-5-5-55-55-5-5-5-5-55-55-5-3-3-3-33-33-3-1/3-3-3-3-3-3-3-5~------------|
E|-3-3-3-33-33-3---------------1-1-1-11-11-1-----------------3~------------|
00:00 / 00:00
Otros videos de esta canción
Repetir
Otros videos de esta canción
Composición de Mat Devine
17 vistas
    • ½ Tono
    • A
    • Bb
    • B
    • C
    • Db
    • D
    • Eb
    • E
    • F
    • F#
    • G
    • Ab
  • Agregar a la lista

    0 comentarios

    Ver todos los comentarios

    ¿Lograste tocar?

    0 Tocaron 0 Aún no

    ¡Graba un video tocando 10 More Minutes With You y envíanoslo!

    00:00 / 00:00
    OK