Cifra Club

Hyperactive

Kill Hannah

Cifrado: Principal (guitarra y guitarra eléctrica)
tono: G
Tabbed by: surfergrl1291
Email: *

My first tab, I’m pretty sure its about 95% correct

Tuning: drop D

Intro: (X4) 
e|---------------------------------------------------------------------------|
B|---------------------------------------------------------------------------|
G|---------------------------------------------------------------------------|
D|-999999--11-11--121212121212--13-13--1414141414141414----------------------|
A|-999999--11-11--121212121212--13-13--1414141414141414----------------------|
D|-999999--11-11--121212121212--13-13--1414141414141414----------------------|

Verse: X4 (0:28)
e|---------------------------------------------------------------------------|
B|---------------------------------------------------------------------------|
G|---------------------------------------------------------------------------|
D|-9-9--------7-7---------2-2------------------------------------------------|
A|-9-9--------7-7---------2-2------------------------------------------------|
D|-9-9--------7-7---------2-2------------------------------------------------|

Chorus: (0:56)
e|---------------------------------------------------------------------------|
B|---------------------------------------------------------------------------|
G|---------------------------------------------------------------------------|
D|-------121212--------------------------------------------------------------|
A|-9999--101010--1212121212121212-X3-----------------------------------------|
D|-9999----------1212121212121212--------------------------------------------|

e|---------------------------------------------------------------------------|
B|---------------------------------------------------------------------------|
G|---------------------------------------------------------------------------|
D|-------121212--14141414141414141414141414141414----------------------------|
A|-9999--101010--12121212121212121212121212121212----------------------------|
D|-9999----------------------------------------------------------------------|

1:17 (X2)
e|---------------------------------------------------------------------------|
B|---------------------------------------------------------------------------|
G|---------------------------------------------------------------------------|
D|-999999--11-11--121212121212--13-13--1414141414141414----------------------|
A|-999999--11-11--121212121212--13-13--1414141414141414----------------------|
D|-999999--11-11--121212121212--13-13--1414141414141414----------------------|

Verse: X3 (1:31)
e|---------------------------------------------------------------------------|
B|---------------------------------------------------------------------------|
G|---------------------------------------------------------------------------|
D|-9-9--------7-7---------2-2------------------------------------------------|
A|-9-9--------7-7---------2-2------------------------------------------------|
D|-9-9--------7-7---------2-2------------------------------------------------|

Chorus: (1:59)
e|---------------------------------------------------------------------------|
B|---------------------------------------------------------------------------|
G|---------------------------------------------------------------------------|
D|-------121212--------------------------------------------------------------|
A|-9999--101010--1212121212121212-X3-----------------------------------------|
D|-9999----------1212121212121212--------------------------------------------|

e|---------------------------------------------------------------------------|
B|---------------------------------------------------------------------------|
G|---------------------------------------------------------------------------|
D|-------121212--14141414141414141414141414141414----------------------------|
A|-9999--101010--12121212121212121212121212121212----------------------------|
D|-9999----------------------------------------------------------------------|

(2:20) 
e|---------------------------------------------------------------------------|
B|---------------------------------------------------------------------------|
G|---------------------------------------------------------------------------|
D|---------------------------------------------------------------------------|
A|-99999999--77777777--5555555555555555---X2---------------------------------|
D|-99999999--77777777--5555555555555555--------------------------------------|

e|---------------------------------------------------------------------------|
B|---------------------------------------------------------------------------|
G|---------------------------------------------------------------------------|
D|---------------------------------------------------------------------------|
A|-99999999--77777777--55555555555555555555555555555555----------------------|
D|-99999999--77777777--55555555555555555555555555555555----------------------|

(2:53) (X4)
e|---------------------------------------------------------------------------|
B|---------------------------------------------------------------------------|
G|---------------------------------------------------------------------------|
D|-999999--11-11--121212121212--13-13--1414141414141414----------------------|
A|-999999--11-11--121212121212--13-13--1414141414141414----------------------|
D|-999999--11-11--121212121212--13-13--1414141414141414----------------------|

(3:21) X3
e|---------------------------------------------------------------------------|
B|---------------------------------------------------------------------------|
G|---------------------------------------------------------------------------|
D|---------------------------------------------------------------------------|
A|-99999999--77777777--2222222222222222--------------------------------------|
D|-99999999--77777777--2222222222222222--------------------------------------|

Chorus: (3:49)
e|---------------------------------------------------------------------------|
B|---------------------------------------------------------------------------|
G|---------------------------------------------------------------------------|
D|-------121212--------------------------------------------------------------|
A|-9999--101010--1212121212121212--------------------------------------------|
D|-9999----------1212121212121212--------------------------------------------|

e|---------------------------------------------------------------------------|
B|---------------------------------------------------------------------------|
G|---------------------------------------------------------------------------|
D|-------121212--14141414141414141414141414141414----------------------------|
A|-9999--101010--12121212121212121212121212121212----------------------------|
D|-9999----------------------------------------------------------------------|

Ending: (3:58) (not quite sure)
e|---------------------------------------------------------------------------|
B|---------------------------------------------------------------------------|
G|---------------------------------------------------------------------------|
D|---------------------------------------------------------------------------|
A|-99999999--77777777--5555555555555555---X2---------------------------------|
D|-99999999--77777777--5555555555555555--------------------------------------|

e|---------------------------------------------------------------------------|
B|---------------------------------------------------------------------------|
G|---------------------------------------------------------------------------|
D|---------------------------------------------------------------------------|
A|-99999999--77777777--55555555555555555555555555555555----------------------|
D|-99999999--77777777--55555555555555555555555555555555----------------------|


| /  slide up
| \  slide down
| h  hammer-on
| p  pull-off
| ~  vibrato
| +  harmonic
| x  Mute note
00:00 / 00:00
Otros videos de esta canción
Repetir
Otros videos de esta canción
Compositor no encontrado.
26 vistas
    • ½ Tono
    • A
    • Bb
    • B
    • C
    • Db
    • D
    • Eb
    • E
    • F
    • F#
    • G
    • Ab
  • Agregar a la lista

    0 comentarios

    Ver todos los comentarios

    ¿Lograste tocar?

    0 Tocaron 0 Aún no

    ¡Graba un video tocando Hyperactive y envíanoslo!

    00:00 / 00:00
    OK