Cifra Club

New Heart For Christmas

Kill Hannah

Tab de bajo: Principal
INTRO:
G|------------------------------------------------------------------|
D|------------------------------------------------------------------|
A|-4-4-4-4-4-4-4-4-4-4-4-4-4-4-4-2-4-4-4-4-4-4-4-4-4-4-4-4-4-4-4-2--|
E|------------------------------------------------------------------|

G|------------------------------------------------------------------|
D|------------------------------------------------------------------|
A|-4-4-4-4-4-4-4-4-6-6-6-6-6-6-6-6-0-0-0-0-0-0-0-0-0-0-0-0-0-0-0-0--|X2
E|------------------------------------------------------------------|

VERSE:
G|------------------------------------------------------------------|
D|------------------------------------------------------------------|
A|-4-4-4-4-4-4-4-4-2-2-2-2-2-2-2-2-0-0-0-0-0-0-0-0------------------|X4
E|-------------------------------------------------0-0-0-0-0-0-0-0--|

G|------------------------------------------------------------------|
D|------------------------------------------------------------------|
A|-2-2-2-2-2-2-2-2-2-2-2-2-2-2-2-2-2-2~-----------------------------|
E|------------------------------------------------------------------|

CHORUS:
G|------------------------------------------------------------------|
D|------------------------------------------------------------------|
A|-4-4-4-4-4-4-4-4-6-6-6-6-6-6-6-6-0-0-0-0-0-0-0-0-0-0-0-0-0-0-0-0--|X3
E|------------------------------------------------------------------|

G|------------------------------------------------------------------|
D|------------------------------------------------------------------|
A|-2-2-2-2-2-2-2-2-2-2-2-2-2-2-2-2-4-4-4-4-4-4-4-4-7~---------------|
E|------------------------------------------------------------------|

VERSE:
G|------------------------------------------------------------------|
D|------------------------------------------------------------------|
A|-4-4-4-4-4-4-4-4-2-2-2-2-2-2-2-2-0-0-0-0-0-0-0-0------------------|X4
E|-------------------------------------------------0-0-0-0-0-0-0-0--|

G|------------------------------------------------------------------|
D|------------------------------------------------------------------|
A|-2-2-2-2-2-2-2-2-2-2-2-2-2-2-2-2-2-2~-----------------------------|
E|------------------------------------------------------------------|

CHORUS:
G|------------------------------------------------------------------|
D|------------------------------------------------------------------|
A|-4-4-4-4-4-4-4-4-6-6-6-6-6-6-6-6-0-0-0-0-0-0-0-0-0-0-0-0-0-0-0-0--|X3
E|------------------------------------------------------------------|

G|------------------------------------------------------------------|
D|------------------------------------------------------------------|
A|-2-2-2-2-2-2-2-2-2-2-2-2-2-2-2-2-4-4-4-4-4-4-4-4-7-7-7-7-7-7-7-7--|
E|------------------------------------------------------------------|

G|------------------------------------------------------------------|
D|------------------------------------------------------------------|
A|-2-2-2-2-2-2-2-2-2-2-2-2-2-2-2-2-4-4-4-4-4-4-4-4-7~---------------|
E|------------------------------------------------------------------|

OUTRO-ISH INTERLUDE: (JUST KEEP REPEATING FOR A WHILE)
G|------------------------------------------------------------------|
D|------------------------------------------------------------------|
A|-4-4-4-4-4-4-4-4-4-4-4-4-4-4-4-4-4-4-4-4-4-4-4-4-4-4-4-4-4-4-4-4--|
E|------------------------------------------------------------------|

00:00 / 00:00
Otros videos de esta canción
Repetir
Otros videos de esta canción
Composición de Mat Devine
7 vistas

0 comentarios

Ver todos los comentarios

¿Lograste tocar?

0 Tocaron 0 Aún no

¡Graba un video tocando New Heart For Christmas y envíanoslo!

00:00 / 00:00
OK