Cifra Club

No One Dreams Anyway

Kill Hannah

Cifrado: Principal (guitarra y guitarra eléctrica)
tono: C
INTRO: (catch the rhythm by ear)
e|------------------------------------------------------------------------|
B|------------------------------------------------------------------------|
G|------------------------------------------------------------------------|
D|-3-3-3-3-3-3-3-3-3-3-3-3-3-3-3-3-3-3-3-3-2------------------------------|
A|-3-3-3-3-3-3-3-3-3-3-3-3-3-3-3-3-3-3-3-3-2~-----------------------------|
E|-1-1-1-1-1-1-1-1-1-1-1-1-1-1-1-1-1-1-1-1-0~-----------------------------|

VERSE:
e|---------------------------------------------------|
B|---------------------------------------------------|
G|--2--2-2----5--5-5---------------------------------|
D|--2--2-2----5--5-5--3--3-3-3-3-3-3--3-3-333-2-2-2--|
A|--0--0-0----3--3-3--3--3-3-3-3-3-3--3-3-333-2-2-2--|X4
E|--------------------1--1-1-1-1-1-1--1-1-111-0-0-0--|

e|--0~--------------------------------------------------------------------|
B|--1~--------------------------------------------------------------------|
G|--2~------2~----------------2~-----5~-----------------------------------|
D|--2~------1~-----3~---------2~-----5~-----3--3-3-3-3-3-3--3-3-333-2-2-2-|
A|--0~------2~-----3~---------0~-----3~-----3--3-3-3-3-3-3--3-3-333-2-2-2-|
E|----------0~-----1~-----------------------1--1-1-1-1-1-1--1-1-111-0-0-0-|

e|-----------------------------------------------------------------|
B|-----------------------------------------------------------------|
G|--2-2-2-2-2-2-2-2-5-5-5-5-5-5-5-5--------------------------------|
D|--2-2-2-2-2-2-2-2-5-5-5-5-5-5-5-5-3-3-3-3-3-3-3-3-3-3-3-3-2-2-2--|
A|--0-0-0-0-0-0-0-0-3-3-3-3-3-3-3-3-3-3-3-3-3-3-3-3-3-3-3-3-2-2-2--|X5
E|----------------------------------1-1-1-1-1-1-1-1-1-1-1-1-0-0-0--|

e|-----------------------------------------------------------------|
B|-----------------------------------------------------------------|
G|--2-2-2-2-2-2-2-2-5-5-5-5-5-5-5-5--------------------------------|
D|--2-2-2-2-2-2-2-2-5-5-5-5-5-5-5-5-3-3-3-3-3-3-3-3-3-3-3-3-2-2-2--|
A|--0-0-0-0-0-0-0-0-3-3-3-3-3-3-3-3-3-3-3-3-3-3-3-3-3-3-3-3-2-2-2--|
E|------------------DISTORION-STARTS1-1-1-1-1-1-1-1-1-1-1-1-0-0-0--|

DISTORTED FROM HERE ON OUT
e|-----------------------------------------------------------------|
B|-----------------------------------------------------------------|
G|--2-2-2-2-2-2-2-2-5-5-5-5-5-5-5-5--------------------------------|
D|--2-2-2-2-2-2-2-2-5-5-5-5-5-5-5-5-3-3-3-3-3-3-3-3-3-3-3-3-2-2-2--|
A|--0-0-0-0-0-0-0-0-3-3-3-3-3-3-3-3-3-3-3-3-3-3-3-3-3-3-3-3-2-2-2--|X5
E|----------------------------------1-1-1-1-1-1-1-1-1-1-1-1-0-0-0--|

e|-----------------------------------------------------------------|
B|-----------------------------------------------------------------|
G|--2-2-2-2-2-2-2-2-5-5-5-5-5-5-5-5--------------------------------|
D|--2-2-2-2-2-2-2-2-5-5-5-5-5-5-5-5-3-3-3-3-3-3-3-3-3-3-3-3-2-2-2--|
A|--0-0-0-0-0-0-0-0-3-3-3-3-3-3-3-3-3-3-3-3-3-3-3-3-3-3-3-3-2-2-2--|
E|----------------------------------1-1-1-1-1-1-1-1-1-1-1-1-0-0-0--|
    . . . . . . . . . . . . . . . .

e|-----------------------------------------------------------------|
B|-----------------------------------------------------------------|
G|--2-2-2-2-2-2-2-2-5-5-5-5-5-5-5-5--------------------------------|
D|--2-2-2-2-2-2-2-2-5-5-5-5-5-5-5-5-3-3-3-3-3-3-3-3-3-3-3-3-2-2-2--|
A|--0-0-0-0-0-0-0-0-3-3-3-3-3-3-3-3-3-3-3-3-3-3-3-3-3-3-3-3-2-2-2--|X3
E|----------------------------------1-1-1-1-1-1-1-1-1-1-1-1-0-0-0--|

e|-----------------------------------------------------------------|
B|-----------------------------------------------------------------|
G|--2-2-2-2-2-2-2-2-5-5-5-5-5-5-5-5--------------------------------|
D|--2-2-2-2-2-2-2-2-5-5-5-5-5-5-5-5-3~--------3-3-3-3-2-2-2--------|
A|--0-0-0-0-0-0-0-0-3-3-3-3-3-3-3-3-3~--------3-3-3-3-2-2-2--------|
E|----------------------------------1~-CLEAN--1-1-1-1-0-0-0--------|
    . . . . . . . . . . . . . . . .

e|-----------------------------------------------------------------|
B|-----------------------------------------------------------------|
G|-----------------------------------------------------------------|
D|-2------5--------------------------------------------------------|
A|-0------3------3~------------------------------------------------|
E|---------------1~------------------------------------------------|


00:00 / 00:00
Otros videos de esta canción
Repetir
Otros videos de esta canción
Compositor no encontrado.
40 vistas
    • ½ Tono
    • A
    • Bb
    • B
    • C
    • Db
    • D
    • Eb
    • E
    • F
    • F#
    • G
    • Ab
  • Agregar a la lista

    0 comentarios

    Ver todos los comentarios

    ¿Lograste tocar?

    0 Tocaron 0 Aún no

    ¡Graba un video tocando No One Dreams Anyway y envíanoslo!

    00:00 / 00:00
    OK