Cifra Club

Race The Dream Intro

Kill Hannah

Cifrado: Principal (guitarra y guitarra eléctrica)
tono: E
intro
E|--------------------------------------------------------|
B|--------------------------------------------------------| 
G|-----------8--------------8----------------9------------|
D|-------6------6-------6-------6-------------------------|
A|---4--------------4------------------7----------7-------|
E|---------------------------------5----------------------|

E|--------------------------------------------------------|
B|--------------------------------------------------------| 
G|------------9----------------11----------------11-------|
D|-------------------------9--------9--------9--------9---|
A|--------7-------7---7-----------------7-----------------|
E|---5----------------------------------------------------|

E|--------------------------------------------------------|
B|--------------------------------------------------------| 
G|-------------8------------------8-----------------------|x2
D|--------------------------------------------------------|
A|-------6---------6---------6--------6-------------------|
E|---4------------------4---------------------------------|

I'm not entirely sure if it is completely accurate so if you have any suggestions please tell me.
00:00 / 00:00
Otros videos de esta canción
Repetir
Otros videos de esta canción
Compositor no encontrado.
12 vistas
    • ½ Tono
    • A
    • Bb
    • B
    • C
    • Db
    • D
    • Eb
    • E
    • F
    • F#
    • G
    • Ab
  • Agregar a la lista

    0 comentarios

    Ver todos los comentarios

    ¿Lograste tocar?

    0 Tocaron 0 Aún no

    ¡Graba un video tocando Race The Dream Intro y envíanoslo!

    00:00 / 00:00
    OK