Cifra Club

My Curse

Killswitch Engage

Tablatura: Principal (guitarra)
Já pensou em usar uma coleção de roupas do Cifra Club? Responda as perguntas abaixo e nos ajude nessa missão! →
tono: Bb
Intro Lead
D|--------------------------------------------------------------------------|
A|------------10------------------10-----------------6---------------6------|
F|----10----------10------10----------10-------5--------5------5--------5---|
C|-8------8------------8------8-------------8-----8--------8------8---------|
G|--------------------------------------------------------------------------|
C|--------------------------------------------------------------------------|

D|----------------------------------------------------------------|
A|----------6---------------5--6------------6---------------5--6--|
F|----5--------5------5---------------5--------5------5-----------|
C|-7-----7---------7-----7---------7-----7---------7-----7--------| X2
G|----------------------------------------------------------------|
C|----------------------------------------------------------------|

Intro Base
D|-8---5---5----|
A|-10--8---6----|
F|-10--7---7----|
C|-8---5---8----|
G|-8---5---5----|
C|-8---5---0----| x 2

Chorus Lead
D|--------------------------------------------------------------------------|
A|------------10------------------10-----------------6---------------6------|
F|----10----------10------10----------10-------5--------5------5--------5---|
C|-8------8------------8------8-------------8-----8--------8------8---------|
G|--------------------------------------------------------------------------|
C|--------------------------------------------------------------------------|

D|----------------------------------------------------------------|
A|----------6---------------5--6------------6---------------5--6--|
F|----5--------5------5---------------5--------5------5-----------|
C|-7-----7---------7-----7---------7-----7---------7-----7--------| X2
G|----------------------------------------------------------------|
C|----------------------------------------------------------------|

Chorus Base
D|------8-------5-------5----|
A|------10------8-------6----|
F|------10------7-------7----|
C|------8-------5-------8----|
G|-8888-8--5555-5--0000-5----|
C|-8888-8--5555-5--0000-0----| x 2
  ....    ....    ....

Verse
D|-------------------------------------------|
A|-------------------------------------------|
F|-------------------------------------------|
C|-5---3-------------------------------------|
G|-5---3-------------------------5-----------|
C|--0-0-0-0-6-0-0-5-0-0-3p0-0-0-7-7-6-5-0-3-5|
   . . . .   . .   . .     . .
D|-------------------------------------------|
A|-------------------------------------------|
F|-------------------------------------------|
C|-5---3-------------------------------------|
G|-5---3-------------------------3-----------|
C|--0-0-0-0-6-0-0-5-0-0-3p0-0-0-5-5-4-3-0-3--|
   . . . .   . .   . .     . .           H
Pre-Chorus
D|------------------------------------------------------------------------|
A|------------------------------------------------------------------------|
F|------------------------------------------------------------------------|
C|------------------------------------------------------------------------|
G|-000-000-000-000-------------------000-000-000-000----------5-----------|
C|-000-000-000-000-3p0-0000-3p0-0000-000-000-000-000-3p0-0-0-7-7-6-5-0-3--|
  ... ... ... ...     ....     .... ... ... ... ...                   H

D|--------------------------------------------------------------------------------|
A|--------------------------------------------------------------------------------|
F|--------------------------------------------------------------------------------|
C|--------------------------------------------------------------------------------|
G|-000-000-000-000-------------------000-000-000-000----------5-----------5-------|
C|-000-000-000-000-3p0-0000-3p0-0000-000-000-000-000-3p0-0-0-7-7-6-5-0---7-7-6-5-0|
  ... ... ... ...     ....     .... ... ... ... ...

Chorus Lead
D|--------------------------------------------------------------------------|
A|------------10------------------10-----------------6---------------6------|
F|----10----------10------10----------10-------5--------5------5--------5---|
C|-8------8------------8------8-------------8-----8--------8------8---------|
G|--------------------------------------------------------------------------|
C|--------------------------------------------------------------------------|

D|----------------------------------------------------------------|
A|----------6---------------5--6------------6---------------5--6--|
F|----5--------5------5---------------5--------5------5-----------|
C|-7-----7---------7-----7---------7-----7---------7-----7--------|
G|----------------------------------------------------------------|
C|----------------------------------------------------------------|

Chorus Base
D|------8-------5-------5----|
A|------10------8-------6----|
F|------10------7-------7----|
C|------8-------5-------8----|
G|-8888-8--5555-5--0000-5----|
C|-8888-8--5555-5--0000-0----|
  ....    ....    ....

Interlude 1
D|-----------------------------------------------|
A|-----------------------------------------------|
F|-14/151515-121212-14/151515-141414-101010-999--|
C|-----------------------------------------------|
G|-12/131313-101010-12/131313-121212-8-8-8--777--|
C|-----------------------------------------------|

D|---------------------------------|
A|---------------------------------|
F|-14/151515-121212-14/151515-14~--|
C|---------------------------------|
G|-12/131313-101010-12/131313-12~--|
C|---------------------------------|

Interlude 2 (Guitar 1)
D|------------------------------------------------------------------|
A|------------------------------------------------------------------|
F|-----10-9------------10-9------------10-9------------10-9--10-9---|
C|---------10-8-7-5--------10-8-7-5--------10-8-7-5--------10----10-|
G|-8888------------5555------------0000------------0000-------------|
C|-8888------------5555------------0000------------0000-------------| x 4
  ....            ....            ....            ....

Interlude 2 (Guitar 2)
D|-----------------------------------------------------------------------------------|
A|-----------------------------------------------------------------------------------|
F|-----14-12-10-12-10-9----14-12-10-12-10-9----14-12-10-12-10-9----14-12-10-14-12-10-|
C|-----------------------------------------------------------------------------------|
G|-8888----------------5555----------------0000----------------0000------------------|
C|-8888----------------5555----------------0000----------------0000------------------|
  ....            ....            ....            ....
Composição de Killswitch Engage
Colaboración y revision:
  • Bruno
2.083 reproducciones
    • ½ Tono
    • A
    • Bb
    • B
    • C
    • Db
    • D
    • Eb
    • E
    • F
    • F#
    • G
    • Ab
  • Adicionar à lista

    0 comentarios

    Ver todos os comentários

    ¿Conseguiste tocar?

    14 Tocaram 1 Ainda não

    Grave um vídeo tocando My Curse e nos envie!

    00:00 / 00:00
    outros vídeos desta música
    repetir qualidade Automático
    Outros vídeos desta música
    00:00 / 00:00
    Automático
    OK