Cifra Club

Get You The Moon (feat. Snow)

Kina Beats

Cifrado: Principal (guitarra y guitarra eléctrica)
tono: A
[Intro] G   Bm  A 
        G   Bm  A 

   G   Bm  A
E|-----------|
B|-0---4---2-|
G|-0---3---2-|
D|-----------|
A|-----2---0-|
E|-3---------|

E|-----------|
B|-0---4---2-|
G|-0---3---2-|
D|-----------|
A|-----2---0-|
E|-3---------|
You gave me shoulder when I needed it
E|-----------|
B|-0---4---2-|
G|-0---3---2-|
D|-----------|
A|-----2---0-|
E|-3---------|
You showed me love when I wasn't feeling it
E|-----------|
B|-0---4---2-|
G|-0---3---2-|
D|-----------|
A|-----2---0-|
E|-3---------|
You helped me fight when I was giving in
E|-----------|
B|-0---4---2-|
G|-0---3---2-|
D|-----------|
A|-----2---0-|
E|-3---------|
And you made me laugh when I was losing it
E|-----------|
B|-0---4---2-|
G|-0---3---2-|
D|-----------|
A|-----2---0-|
E|-3---------|


Cause you are, you are
The reason why I'm still, hanging on
E|-----------|
B|-0---4---2-|
G|-0---3---2-|
D|-----------|
A|-----2---0-|
E|-3---------|
Cause you are, you are
The reason why my head is still above water
   
E|-----------|
B|-0---4---2-|
G|-0---3---2-|
D|-----------|
A|-----2---0-|
E|-3---------|
And if I could I'd get you the moon, and give it to you
   
E|-----------|
B|-0---4---2-|
G|-0---3---2-|
D|-----------|
A|-----2---0-|
E|-3---------|

And if death was coming for you, I'd give my life for you
E|-----------|
B|-0---4---2-|
G|-0---3---2-|
D|-----------|
A|-----2---0-|
E|-3---------|

G
Cause you are, you are
Bm                     A
The reason why I'm still, hanging on
G
Cause you are, you are
Bm                            A
The reason why my head is still above water
G                                 Bm      A
And if I could I'd get you the moon, and give it to you
G                             Bm          A
And if death was coming for you, I'd give my life for you

G                     Bm  A
Cause you are, you are
   G         Bm    A
Ohh, you are
  G     Bm A
Ohh, you are
  G     Bm A
You are

G
Cause you are, you are
Bm                     A
The reason why I'm still, hanging on
G
Cause you are, you are
    Bm                      A
The reason why my head is still above water
G                             Bm           A
And if I could I'd get you the moon, and give it to you
G                             Bm           A
And if death was coming for you, I'd give my life for you
Composición de Snøw
Colaboración y revisión:
16.783 vistas
    • ½ Tono
    • A
    • Bb
    • B
    • C
    • Db
    • D
    • Eb
    • E
    • F
    • F#
    • G
    • Ab
  • Agregar a la lista

    0 comentarios

    Ver todos los comentarios

    ¿Lograste tocar?

    93 Tocaron 29 Aún no

    ¡Graba un video tocando Get You The Moon (feat. Snow) y envíanoslo!

    00:00 / 00:00
    Otros videos de esta canción
    Repetir Calidad Automático
    Otros videos de esta canción
    00:00 / 00:00
    Automático
    OK