Cifra Club

Moon Child

King Crimson

Tablatura: Principal (guitarra)
Tom: G
King Crimson - Moon Child

from the album In the Court of the Crimson King

  Call her Moon- Child               Dancing in the shallows of a river
E|--------|------------|------------|------------|------------|------------|
B|--------|------------|------------|------------|------------|------------|
G|--------|------9-----|------------|7-----7--9--|7-----------|------------|
D|2-------/7-----------|------------|---10-------|---10-7---10|10\7--------|
A|--------|------------|------------|------------|------------|------------|
E|--------|------------|------------|------------|------------|------------|

                                 Lonely Moon- child
E|------------|------------|------------|------------|------------|
B|------------|------------|------------|------------|------------|
G|------------|------------|------------|------9-----|------------|
D|------------|------------|------------|7-----------|------------|
A|------------|------------|------7--7--|------------|------------|
E|------------|------------|------------|------------|------------|

 Dreaming in the shadow of a willow
E|------------|------------|------------|------------|------------|
B|------------|------------|------------|------------|------------|
G|7-----7--9--|7-----------|------------|------------|------------|
D|---10-------|---10-7---10|10\7--------|------------|------------|
A|------------|------------|------------|------------|------------|
E|------------|------------|------------|------------|------------|

              Talking to the Trees of the cob- web    strange
E|------------|------------|------------|------------|------------|
B|------------|------------|------------|------------|------------|
G|------------|9--7--------|------------|------------|------------|
D|------------|------10-7--|9--------7--|7-----------|------------|
A|------------|------------|----------10|------10----|7-----------|
E|------------|------------|------------|------------|------------|

  Sleeping on the steps of a fountain                 Waving silver
E|------------|------------|------------|------------|------------|
B|------------|------------|------------|------------|------------|
G|9--7--------|------------|------9-----|------------|9--7--------|
D|------10-7--|9--------7--|7-----------|------------|------10-7--|
A|------------|----------10|------------|------------|------------|
E|------------|------------|------------|------------|------------|

   wand to the night-birds  song         Waiting for the sun on the   
E|------------|------------|------------|------------|------------|
B|------------|------------|------------|------------|------------|
G|------------|------------|------------|9--7--------|------------|
D|9--------7--|7-----------|------------|------10-7--|9-----7-----|
A|----------10|------10----|7-----------|------------|---------10-|
E|------------|------------|------------|------------|------------|

  mountain
E|------------|
B|------------|
G|------------|
D|7-----7-----|
A|------------|
E|------------|

  She's a  Moon- Child               Gathering the flowers in a garden

            Am           Am/G#        Am/G         Am/F#        Am
E|--------|------0-----|------0-----|------0-----|------0-----|------0-----|
B|--------|------1-----|------1-----|------1-----|------1-----|------1-----|
G|--------|---2--------|---2--------|---2--------|---2--------|---2--------|
D|--------|------------|------------|------------|------------|------------|
A|--------|0-----------|------------|------------|------------|0-----------|
E|--------|------------|4-----------|3-----------|2-----------|------------|


                                  
                                  Lovely Moon- child

   Am/G#        Am/G         Am/F#        Am           Am/G#
E|------0-----|------0-----|------0-----|------0-----|------0-----|
B|------1-----|------1-----|------1-----|------1-----|------1-----|
G|---2--------|---2--------|---2--------|---2--------|---2--------|
D|------------|------------|------------|------------|------------|
A|------------|------------|------------|0-----------|------------|
E|4-----------|3-----------|2-----------|------------|4-----------|


 
  Drifting on the echoes of the hours

   Am/G         Am/F#        Am           Am/G#        Am/G
E|------0-----|------0-----|------0-----|------0-----|------0-----|
B|------1-----|------1-----|------1-----|------1-----|------1-----|
G|---2--------|---2--------|---2--------|---2--------|---2--------|
D|------------|------------|------------|------------|------------|
A|------------|------------|0-----------|------------|------------|
E|3-----------|2-----------|------------|4-----------|3-----------|


              Sailing on the wind in a   milk  white  gown

   Am/F         Am           G            Am    G      Em
E|------0-----|0-----------|3-----------|0-----3-----|------------|
B|------1-----|1-----------|0-----------|1-----0-----|0-----------|
G|---2--------|2-----------|0-----------|2-----0-----|0-----------|
D|------------|------------|------------|------------|2-----------|
A|------------|0-----------|------------|0-----------|------------|
E|2-----------|------------|3-----------|------3-----|0-----------|



  Dropping circle stones on a sun dial                Playing hide

   Am           G            Am                        Am
E|0-----------|3-----------|0-----------|5-----------|0-----------|
B|1-----------|0-----------|1-----------|5-----------|1-----------|
G|2-----------|0-----------|2-----------|5-----------|2-----------|
D|------------|------------|------------|------------|------------|
A|0-----------|------------|0-----------|------------|0-----------|
E|------------|3-----------|------------|------------|------------|


  and seek with the ghosts of dawn       Waiting for a smile from a

   G            Am    G      Em           Am           G
E|3-----------|0-----3-----|------------|0-----------|3-----------|
B|0-----------|1-----0-----|0-----------|1-----------|0-----------|
G|0-----------|2-----0-----|0-----------|2-----------|0-----------|
D|------------|------------|2-----------|------------|------------|
A|------------|0-----------|------------|0-----------|------------|
E|3-----------|------3-----|0-----------|------------|3-----------|



   sun child

   Am
E|0-----------|
B|1-----------|
G|2-----------|
D|------------|
A|0-----------|
E|------------|
reproducciones 347
Acordes para:
    Colaboración y revision:
    • G 1212

    0 comentarios

    mostrar más comentarios

    ¿Conseguiste tocar?

    0 tocaron 0 aún no

    ¡Graba un vídeo tocando Moon Child y envianoslo!

    00:00 / 00:00
    outros vídeos desta música
    repetir qualidade Automático
    Outros vídeos desta música
    00:00 / 00:00
    Automático
    OK