Cifra Club

24-25

Kings Of Convenience

Cifrado: Principal (guitarra y guitarra eléctrica)
tono: E
1º violão (capotraste 9ª casa)

(Repeat several times with 1st guitar only:)
E|-----------------------------------------------------------------------------|
B|-----9--------9--------12--------12---------9----------9---------9--------9--|
G|---9---9----9---9----11--11----11---9-----9---9------9---9-----9---9----9---9|
D|---------11-----------------9----------------------9-----------------11------|
A|-12----------------9-------------------11-------------------12---------------|
E|-----------------------------------------------------------------------------|

2º violão (sem capotraste)

(Repeat several times:)

   A7M       B7      E       A7
E|-0--------0-------0-------0----|
B|-2--------0-------0-------2----|
G|-1--------x-------1-------1----|
D|-2--------1-------2-------2----|
A|-0--------2-------2-------0----|
E|-x--------x-------0-------x----|

A7M        B7
She'll be gone soon
        E                A7M
You can have me for yourself

A7M        B7
She'll be gone soon
        E                A7M
You can have me for yourself

A7M    B7
But do give
E              A7M
Just give me today
A7M    B7   E             A7M
Or you will just scare me away

A7M     B7
What we built is bigger
E               A7M
Than the sum of two
A7M     B7
What we built is bigger
E               A7M
Than the sum of two

A7M     B7
But somewhere
E                  A7M
I lost count of my own
A7M     B7
And somehow
E              A7M
I must find it alone

A7M    B7                E                  A7M
Twenty-four and blooming like the fields of May
A7M    B7                E            A7M
Twenty-five and yearning for a ticket out

A7M    B7
Dreams burn
E                A7M
But in ashes are gold
A7M    B7
Dreams burn
E                A7M
But in ashes are gold
00:00 / 00:00
Otros videos de esta canción
Repetir
Otros videos de esta canción
Compositor no encontrado.
Colaboración y revisión:
  • Henrique Yoshida
225 exhibiciones
    • ½ Tono
    • A
    • Bb
    • B
    • C
    • Db
    • D
    • Eb
    • E
    • F
    • F#
    • G
    • Ab
  • Agregar a la lista
    00:00 / 00:00
    OK