Cifra Club

Mrs. Cold

Kings Of Convenience

Cifrado: Principal (guitarra y guitarra eléctrica)
tono: G
Intro:

(Violão 1)
E|------------------------------------------|
B|-------x-----------x--------x-----------x-|
G|-------x-----------x--------x-----------x-|
D|-----x---x-------x--------x---x-------x---|
A|-----------x-(6)------(6)-------x-(6)-----|
E|--(6)-------------------(6)---------------|

Riff Base:
E|------------------------------------------|
B|------6---6-----6---6-----4---4----4---4--|
G|------7---7-----7---7-----5---5----5---5--|
D|------------------------------------------|
A|----6--(6)----6--(6)----------------------|
E|----------------------6-4--(4)----4-(4)---|

(Violão 2) Solo da Intro
E|------------------------------------------|  |-----------------------------|
B|-8888-8888-888-8888-9-11-11s13-13-11-9-11-|x2|-----8888-8888-888-----------|
G|------------------------------------------|  |----------------10101010-10--|
D|------------------------------------------|  |-----------------------------|
A|------------------------------------------|  |-----------------------------|
E|------------------------------------------|  |-----------------------------|

E|---------------------------------------------------------------------------|
B|-----------------------8888-8888-888-8888-9-11-11s13-13-11-9-11-8----------|
G|-10s12-10-------10---------------------------------------------------------|
D|----------13-10------------------------------------------------------------|
A|---------------------------------------------------------------------------|
E|---------------------------------------------------------------------------|

Tocando o riff base:

Hey baby, Mrs. Cold
Acting so tough,
didn't know you had it in you so be hurt at all
You waited too long
You should've hook me
before I put my raincoat on

When can I get it
When can I see
You were fronting because
You knew you'd find yourself vulnerable around me
When can I get it
When can I see
You feel vulnerable around me

Riff 2:

(Violão 2)
E|---------------------------------------------------------------------------|
B|--P--M---------------------------------------------------------------------|
G|--A--U---------------------------------------------------------------------|
D|--L--T---1212121212-------12-12---------------------------------12h13p12---|
A|--M--E--------------13-13-------13-13--131313--11-1111--13-1313----------13|
E|---------------------------------------------------------------------------|

E|---------------------------------------------------------------------------|
B|---------------------------------------------------------------------------|
G|---------------------------------------------------------------------------|
D|--1212121212-------12-12---------------------------------17p15h17p15-------|
A|-------------13-13-------13-13--131313--11-1111--15-1515--------------17---|
E|---------------------------------------------------------------------------|

E|---------------------------------------------------------------------------|
B|---------------------------------------------------------------------------|
G|---------------------------------------------------------------------------|
D|--1212-------12-12--------------------------------12h13p12-----------------|
A|-------13-13-------13-13--131313--11-1111-13-1313-----------13-------------|
E|---------------------------------------------------------------------------|

E|---------------------------------------------------------------------------|
B|---------------------------------------------------------------------------|
G|---------------------------------------------------------------------------|
D|--1212121212-------12-12---------------------------------17p15h17p15-------|
A|-------------13-13-------13-13--131313--10-1010--15-1515--------------17-13|
E|---------------------------------------------------------------------------|

(Riff Base)
Hey, baby
whats going on?
We lost control and you lost your tongue
You lost me
Deaf in my ear
Nothing you can say is gonna change the way I feel

When can I get it
When can I see
You were fronting because
You knew you find yourself vulnerable around me

When can I get it
When can I see
I step too close to your boundaries

You wanted nobody around to see
You feel vulnerable around me

Hey baby
What is love?
It was just a game
We both played and we cant get enough of

(Violão 2)
E|-------------------------------------------------|
B|-------------------------------------------------|
G|-------------------------------------------------|   (6x)
D|------8-10-8-----8-10-8-----8-10-8-----8-10-8----|
A|---10---------10---------11---------11-----------|
E|-------------------------------------------------|

(Violão 1)
E|----------------|------------3--|
B|--3-3-3--4-4-4--|------------3--|
G|--3-3-3--5-5-5--|--x3--------4--|
D|----------------|--x3--------5--|
A|----------------|------------5--|
E|--3-3-3--4-4-4--|------------3--|
00:00 / 00:00
Otros videos de esta canción
Repetir
Otros videos de esta canción
Compositor no encontrado.
Colaboración y revisión:
  • Caíque Guirao
1.095 exhibiciones
    • ½ Tono
    • A
    • Bb
    • B
    • C
    • Db
    • D
    • Eb
    • E
    • F
    • F#
    • G
    • Ab
  • Agregar a la lista
    00:00 / 00:00
    OK