Cifra Club

Aprenda

Be Somebody

Kings Of Leon

Tablatura: Principal (guitarra)
tono: D
Intro:
Riff 1 3x:
E|--------------------------------------------------------------------------------|
B|--------------------------------------------------------------------------------|
G|--------------------------------------------------------------------------------|
D|-------------------------------------------------------------------------------- |        
A|-----5----5----5----5----5----5----5--------5----5----5--------5----5----5------|
E|--0-----------------------------------0--3---------------3--2-------------------|

Refrão:
Riff 2 3x:
E|-----------------------------------------|
B|-----------------------------------------|
G|-----------------------------------------|                      
D|-----------------------------------------|
A|-=---7-----7-----7-----7---------11------|
E|--5-----5-----5-----0-----0---9------9---|

(Riff 1)
Taking to the floor with the wheel to the sky    
I loosen my tie, I loosen my tie                 
Locking down the door with the rhythm and rhyme  
I loosen my tie, I loosen my tie                 
                                                 
Trying to recall what you want me to say         
I shake your way, I shake your way               
Counting on the night for a beautiful day        
I shake your way, I shake your way               
And I say you can't get enough                   
No you can't get enough

(Riff 2)
Given a chance, I'm gonna be somebody            
If for one dance, I'm gonna be somebody          
Open the door, it's gonna make you love me       
Facing the floor, I'm gonna be somebody          

(Riff 1)
Now is your time and you know where you stand    
With a gun in your hand, with a gun in your hand 
Now I'm no longer an ordinary man                
Was this your big plan, your gun in your hand    
And I say you can't get enough                   
No you can't get enough                          

(Riff 2)
Given a chance, I'm gonna be somebody            
If for one dance, I'm gonna be somebody          
Open the door, it's gonna make you love me       
Facing the floor, I'm gonna be somebody          
                                                 
Be somebody                                      
Be somebody                                      
Composição de Caleb Followill / Jared Followill / Matthew Followill / Nathan Followill
Colaboración y revision:
  • Andrey
396 reproducciones
    • ½ Tono
    • A
    • Bb
    • B
    • C
    • Db
    • D
    • Eb
    • E
    • F
    • F#
    • G
    • Ab
  • Adicionar à lista

    0 comentarios

    Ver todos os comentários

    ¿Conseguiste tocar?

    2 Tocaram 0 Ainda não

    Grave um vídeo tocando Be Somebody e nos envie!

    00:00 / 00:00
    outros vídeos desta música
    repetir qualidade Automático
    Outros vídeos desta música
    00:00 / 00:00
    Automático
    OK