Cifra Club

Camaro

Kings Of Leon

Tablatura: Principal (guitarra)
Tom: A
Tabbed by:alexmascart

Tuning: standard ( i think!)
I saw nobody else had tabbed this so i thought i would have a go!

e|----------------|
B|----------------|
G|----------------|
D|--7-7-7-7-------| x 4
A|--7-7-7-7-------|
E|--5-5-5-5-------|

let ring...
e|-----------------|
B|-----------------|
G|-----------------|just before verse. "she looks so cool in her new..."
D|------7----------|
A|------7----------|
E|*|

This is the wicked solo after the verse.
e|----14b-12----------------14-12------------|
B|-----------14-12----------------14---------|
G|------------------14----------------14-----| x ? (i cant remember!)
D|-------------------------------------------|
A|-------------------------------------------|
E|-------------------------------------------|

After the second verse play this:

e|-14b-12----------14-12----------------------------------------|
b|-------14-12----------14----------------------------14-12-----|
g|-------------14----------14-12h14-12h14-12h14-12h14-----------|
d|--------------------------------------------------------------|
a|--------------------------------------------------------------|
e|--------------------------------------------------------------|

e|---------------------------14-12-------|
b|---------------------------------------|
g|--12h14-12h14-12h14-12h14--------------|
d|---------------------------------------|
a|---------------------------------------|
e|---------------------------------------|

This is all i know but its pretty good!
reproducciones 56
Acordes para:

    0 comentarios

    mostrar más comentarios

    ¿Conseguiste tocar?

    0 tocaron 0 aún no

    ¡Graba un vídeo tocando Camaro y envianoslo!

    00:00 / 00:00
    outros vídeos desta música
    repetir qualidade Automático
    Outros vídeos desta música
    00:00 / 00:00
    Automático
    OK