Cifra Club

Charmer

Kings Of Leon

Tablatura: Principal (guitarra)
Tom: C
(intro / verso)

G|---------------------|
D|---------------------|
A|------2222-----------|
E|-3333------0000-2222-|

E|----------------------------------------------------------|
B|----------------------------------------------------------|
G|----------------------------------------------------------|
D|--------------4---------4-4-------------------------------|
A|--------2-4-5---5---2---4-4-------------------------------|
E|--0-2-3-----------3---0-2-2-------------------------------|

(refrão)
E|---------------------------------------------|
B|---------------------------------------------|
G|------4444-----------------------------------|
D|-5555-4444-2222-4444-------------------------|
A|-5555-2222-2222-4444-------------------------|
E|-3333------0000-2222-------------------------|

Lead Comes In
E|----------------------------------------------------------|
B|----8-8-8-8-8-8-8-8-8-8-8-8-8-8-8-8-----------------------|
G|-----7-7-7-7-7-7-7-7-7-7-7-7-7-7-7-7----------------------|
D|----------------------------------------------------------|
A|----------------------------------------------------------|
E|----------------------------------------------------------|

(ponte)
G|---------------| ----------------------|
D|--222----------| --222-----------55555-|
A|------33-2-3---| ------33-2-3----------|
E|-------------3-| -------------3--------|

G|----------------------|
D|--222-----------55555-|
A|------33-2-3----------|
E|-------------3--------|

E|----7-7-5-------------------------------------------------|
B|----8-8-8-8-----------------------------------------------|
G|----------7-----------------------------------------------|
D|----------------------------------------------------------|
A|----------------------------------------------------------|
E|----------------------------------------------------------|

E|----------------------------------------------------------|
B|---8b-8b-8b-8b-8b-8b-8b-8b-8b-8b-8b-8b-8b-8b-8b-8b--------|
G|---7b-7b-7b-7b-7b-7b-7b-7b-7b-7b-7b-7b-7b-7b-7b-7b--------|
D|----------------------------------------------------------|
A|----------------------------------------------------------|
E|----------------------------------------------------------|

E|---------------------------------------7-----7-----10-----|
B|---------------------------8b-8b-8b-8b--10-8--10-8--------|
G|---7b-7b-7b-7b-7b-7b-7b-7b--------------------------------|
D|----------------------------------------------------------|
A|----------------------------------------------------------|
E|----------------------------------------------------------|

E|---------------------------------------7-----7-----11-----|
B|---------------------------8b-8b-8b-8b--10-8--10-8--------|
G|---7b-7b-7b-7b-7b-7b-7b-7b--------------------------------|
D|----------------------------------------------------------|
A|----------------------------------------------------------|
E|----------------------------------------------------------|

E|--------7-7-------10-10-----------------------------------|
B|----8-8-----10-10-----------------------------------------|
G|-----7-7-7-7--7--7--7--7----------------------------------|
D|----------------------------------------------------------|
A|----------------------------------------------------------|
E|----------------------------------------------------------|
reproducciones 186
Acordes para:

    0 comentarios

    mostrar más comentarios

    ¿Conseguiste tocar?

    2 tocaron 0 aún no

    ¡Graba un vídeo tocando Charmer y envianoslo!

    00:00 / 00:00
    outros vídeos desta música
    repetir qualidade Automático
    Outros vídeos desta música
    00:00 / 00:00
    Automático
    OK